  0
SECTION
  2
HEADER
  9
$ACADVER
  1
AC1009
  9
$INSBASE
 10
0.0
 20
0.0
 30
0.0
  9
$EXTMIN
 10
-270.01647823492112
 20
-405.80211091866698
 30
-0.0015258207003583
  9
$EXTMAX
 10
270.0164807494923
 20
397.08808227102492
 30
0.0000000349246037
  9
$LIMMIN
 10
0.0
 20
0.0
  9
$LIMMAX
 10
0.0
 20
0.0
  9
$ORTHOMODE
 70
     0
  9
$REGENMODE
 70
     1
  9
$FILLMODE
 70
     1
  9
$QTEXTMODE
 70
     0
  9
$MIRRTEXT
 70
     1
  9
$DRAGMODE
 70
     2
  9
$LTSCALE
 40
15.24
  9
$OSMODE
 70
   231
  9
$ATTMODE
 70
     1
  9
$TEXTSIZE
 40
0.0
  9
$TRACEWID
 40
1.0
  9
$TEXTSTYLE
  7
STANDARD
  9
$CLAYER
  8
DATA
  9
$CELTYPE
  6
BYLAYER
  9
$CECOLOR
 62
   256
  9
$DIMSCALE
 40
1.0
  9
$DIMASZ
 40
0.18
  9
$DIMEXO
 40
0.0625
  9
$DIMDLI
 40
0.38
  9
$DIMRND
 40
0.0
  9
$DIMDLE
 40
0.0
  9
$DIMEXE
 40
0.18
  9
$DIMTP
 40
0.0
  9
$DIMTM
 40
0.0
  9
$DIMTXT
 40
0.18
  9
$DIMCEN
 40
0.09
  9
$DIMTSZ
 40
0.0
  9
$DIMTOL
 70
     0
  9
$DIMLIM
 70
     0
  9
$DIMTIH
 70
     1
  9
$DIMTOH
 70
     1
  9
$DIMSE1
 70
     0
  9
$DIMSE2
 70
     0
  9
$DIMTAD
 70
     0
  9
$DIMZIN
 70
     0
  9
$DIMBLK
  1

  9
$DIMASO
 70
     1
  9
$DIMSHO
 70
     1
  9
$DIMPOST
  1

  9
$DIMAPOST
  1

  9
$DIMALT
 70
     0
  9
$DIMALTD
 70
     2
  9
$DIMALTF
 40
25.399999999999999
  9
$DIMLFAC
 40
1.0
  9
$DIMTOFL
 70
     0
  9
$DIMTVP
 40
0.0
  9
$DIMTIX
 70
     0
  9
$DIMSOXD
 70
     0
  9
$DIMSAH
 70
     0
  9
$DIMBLK1
  1

  9
$DIMBLK2
  1

  9
$DIMSTYLE
  2
STANDARD
  9
$DIMCLRD
 70
     0
  9
$DIMCLRE
 70
     0
  9
$DIMCLRT
 70
     0
  9
$DIMTFAC
 40
1.0
  9
$DIMGAP
 40
0.09
  9
$LUNITS
 70
     2
  9
$LUPREC
 70
     4
  9
$SKETCHINC
 40
0.1
  9
$FILLETRAD
 40
0.0
  9
$AUNITS
 70
     0
  9
$AUPREC
 70
     0
  9
$MENU
  1
acad
  9
$ELEVATION
 40
0.0
  9
$PELEVATION
 40
0.0
  9
$THICKNESS
 40
0.0
  9
$LIMCHECK
 70
     0
  9
$BLIPMODE
 70
     0
  9
$CHAMFERA
 40
0.0
  9
$CHAMFERB
 40
0.0
  9
$SKPOLY
 70
     0
  9
$TDCREATE
 40
2456360.6459722221
  9
$TDUPDATE
 40
2456360.6464543748
  9
$TDINDWG
 40
0.0003408333
  9
$TDUSRTIMER
 40
0.0003408333
  9
$USRTIMER
 70
     1
  9
$ANGBASE
 50
0.0
  9
$ANGDIR
 70
     0
  9
$PDMODE
 70
     1
  9
$PDSIZE
 40
-2.0
  9
$PLINEWID
 40
0.0
  9
$COORDS
 70
     2
  9
$SPLFRAME
 70
     0
  9
$SPLINETYPE
 70
     6
  9
$SPLINESEGS
 70
     8
  9
$ATTDIA
 70
     0
  9
$ATTREQ
 70
     1
  9
$HANDLING
 70
     1
  9
$HANDSEED
  5
405
  9
$SURFTAB1
 70
     6
  9
$SURFTAB2
 70
     6
  9
$SURFTYPE
 70
     6
  9
$SURFU
 70
     6
  9
$SURFV
 70
     6
  9
$UCSNAME
  2

  9
$UCSORG
 10
0.0
 20
0.0
 30
0.0
  9
$UCSXDIR
 10
1.0
 20
0.0
 30
0.0
  9
$UCSYDIR
 10
0.0
 20
1.0
 30
0.0
  9
$PUCSNAME
  2

  9
$PUCSORG
 10
0.0
 20
0.0
 30
0.0
  9
$PUCSXDIR
 10
1.0
 20
0.0
 30
0.0
  9
$PUCSYDIR
 10
0.0
 20
1.0
 30
0.0
  9
$USERI1
 70
     0
  9
$USERI2
 70
     0
  9
$USERI3
 70
     0
  9
$USERI4
 70
     0
  9
$USERI5
 70
     0
  9
$USERR1
 40
0.0
  9
$USERR2
 40
0.0
  9
$USERR3
 40
0.0
  9
$USERR4
 40
0.0
  9
$USERR5
 40
0.0
  9
$WORLDVIEW
 70
     1
  9
$SHADEDGE
 70
     3
  9
$SHADEDIF
 70
    70
  9
$TILEMODE
 70
     1
  9
$MAXACTVP
 70
    64
  9
$PLIMCHECK
 70
     0
  9
$PEXTMIN
 10
1.0000000000000000E+020
 20
1.0000000000000000E+020
 30
1.0000000000000000E+020
  9
$PEXTMAX
 10
-1.0000000000000000E+020
 20
-1.0000000000000000E+020
 30
-1.0000000000000000E+020
  9
$PLIMMIN
 10
0.0
 20
0.0
  9
$PLIMMAX
 10
12.0
 20
9.0
  9
$UNITMODE
 70
     0
  9
$VISRETAIN
 70
     0
  9
$PLINEGEN
 70
     1
  9
$PSLTSCALE
 70
     0
  0
ENDSEC
  0
SECTION
  2
TABLES
  0
TABLE
  2
VPORT
 70
     1
  0
VPORT
  2
*ACTIVE
 70
     0
 10
0.0
 20
0.0
 11
1.0
 21
1.0
 12
0.0000012572857031
 22
-4.3570143238210903
 13
0.0
 23
0.0
 14
1.0
 24
1.0
 15
0.0
 25
0.0
 16
0.0
 26
0.0
 36
1.0
 17
0.0
 27
0.0
 37
0.0
 40
809.17915031650398
 41
2.1503267973856199
 42
50.0
 43
0.0
 44
0.0
 50
0.0
 51
0.0
 71
     0
 72
  2000
 73
     1
 74
     1
 75
     0
 76
     0
 77
     0
 78
     0
  0
ENDTAB
  0
TABLE
  2
LTYPE
 70
    12
  0
LTYPE
  2
CONTINUOUS
 70
     0
  3
Solid line
 72
    65
 73
     0
 40
0.0
  0
LTYPE
  2
PHANTOM2
 70
     0
  3
___ _ _ ___ _ _ ___ _ _ ___ _ _
 72
    65
 73
     6
 40
1.25
 49
0.625
 49
-0.125
 49
0.125
 49
-0.125
 49
0.125
 49
-0.125
  0
ENDTAB
  0
TABLE
  2
LAYER
 70
     6
  0
LAYER
  2
0
 70
     0
 62
     7
  6
CONTINUOUS
  0
LAYER
  2
DATA
 70
     0
 62
     7
  6
CONTINUOUS
  0
LAYER
  2
HIBINO-BASE
 70
     0
 62
     7
  6
CONTINUOUS
  0
LAYER
  2
PATTERN_FILL
 70
     0
 62
     7
  6
CONTINUOUS
  0
LAYER
  2
SPEC
 70
     0
 62
     7
  6
CONTINUOUS
  0
LAYER
  2
DIMNSIONS
 70
     0
 62
     7
  6
CONTINUOUS
  0
ENDTAB
  0
TABLE
  2
STYLE
 70
     3
  0
STYLE
  2
STANDARD
 70
     0
 40
0.0
 41
1.0
 50
0.0
 71
     0
 42
0.0
  3
txt
  4
BIGFONT.SHX
  0
ENDTAB
  0
TABLE
  2
VIEW
 70
     0
  0
ENDTAB
  0
TABLE
  2
UCS
 70
     0
  0
ENDTAB
  0
TABLE
  2
APPID
 70
     4
  0
APPID
  2
ACAD
 70
     0
  0
APPID
  2
ACADANNOTATIVE
 70
     0
  0
APPID
  2
ACAD_NAV_VCDISPLAY
 70
     0
  0
APPID
  2
ACAD_MLEADERVER
 70
     0
  0
ENDTAB
  0
TABLE
  2
DIMSTYLE
 70
     2
  0
DIMSTYLE
  2
STANDARD
 70
     0
  3

  4

  5

  6

  7

 40
1.0
 41
0.18
 42
0.0625
 43
0.38
 44
0.18
 45
0.0
 46
0.0
 47
0.0
 48
0.0
140
0.18
141
0.09
142
0.0
143
25.399999999999999
144
1.0
145
0.0
146
1.0
147
0.09
 71
     0
 72
     0
 73
     1
 74
     1
 75
     0
 76
     0
 77
     0
 78
     0
170
     0
171
     2
172
     0
173
     0
174
     0
175
     0
176
     0
177
     0
178
     0
  0
ENDTAB
  0
ENDSEC
  0
SECTION
  2
BLOCKS
  0
BLOCK
  8
0
  2
$MODEL_SPACE
 70
     0
 10
0.0
 20
0.0
 30
0.0
  3
$MODEL_SPACE
  1

  0
ENDBLK
  5
35D
  8
0
  0
BLOCK
 67
     1
  8
0
  2
$PAPER_SPACE
 70
     0
 10
0.0
 20
0.0
 30
0.0
  3
$PAPER_SPACE
  1

  0
ENDBLK
  5
359
 67
     1
  8
0
  0
ENDSEC
  0
SECTION
  2
ENTITIES
  0
LINE
  5
2D
  8
HIBINO-BASE
  6
CONTINUOUS
 62
     7
 10
-269.99999999999989
 20
397.0636300000001
 30
0.0
 11
269.99999999999989
 21
397.0636300000001
 31
0.0
  0
LINE
  5
2E
  8
HIBINO-BASE
  6
CONTINUOUS
 62
     7
 10
269.99999999999989
 20
-382.93637000000001
 30
0.0
 11
-269.99999999999989
 21
-382.93637000000001
 31
0.0
  0
LINE
  5
2F
  8
HIBINO-BASE
  6
CONTINUOUS
 62
     7
 10
-269.99999999999989
 20
-382.93637000000001
 30
0.0
 11
-269.99999999999989
 21
397.0636300000001
 31
0.0
  0
LINE
  5
30
  8
HIBINO-BASE
  6
CONTINUOUS
 62
     7
 10
269.99999999999989
 20
397.0636300000001
 30
0.0
 11
269.99999999999989
 21
-382.93637000000001
 31
0.0
  0
LINE
  5
31
  8
HIBINO-BASE
  6
CONTINUOUS
 62
     7
 10
0.0000000000000213
 20
-315.43637000000001
 30
0.0
 11
269.99999999999989
 21
-315.43637000000001
 31
0.0
  0
LINE
  5
32
  8
HIBINO-BASE
  6
CONTINUOUS
 62
     7
 10
0.0000000000000213
 20
-382.93637000000001
 30
0.0
 11
0.0000000000000213
 21
-315.43637000000001
 31
0.0
  0
TEXT
  5
33
  8
HIBINO-BASE
 62
     7
 10
2.700000000000037
 20
-322.96244999999999
 30
0.0
 40
4.8865234374999993
  1
NOTE
 41
0.7
 11
2.7000000000000379
 21
-318.0759265625
 31
0.0
 73
     3
  0
LINE
  5
34
  8
HIBINO-BASE
  6
CONTINUOUS
 62
     7
 10
105.0
 20
-382.93637000000001
 30
0.0
 11
105.0
 21
-315.43637000000001
 31
0.0
  0
TEXT
  5
35
  8
HIBINO-BASE
 62
     7
 10
107.7
 20
-322.96244999999999
 30
0.0
 40
4.8865234374999993
  1
TITLE
 41
0.7
 11
107.7
 21
-318.0759265625
 31
0.0
 73
     3
  0
LINE
  5
36
  8
HIBINO-BASE
  6
CONTINUOUS
 62
     7
 10
0.0000000000000213
 20
-352.93637000000001
 30
0.0
 11
269.99999999999989
 21
-352.93637000000001
 31
0.0
  0
TEXT
  5
37
  8
HIBINO-BASE
 62
     7
 10
145.19999999999999
 20
-360.29349000000002
 30
0.0
 40
4.8865234374999993
  1
DRAWN
 41
0.7
 11
145.19999999999999
 21
-355.40696656249997
 31
0.0
 73
     3
  0
TEXT
  5
38
  8
HIBINO-BASE
 62
     7
 10
70.199999999999989
 20
-360.29349000000002
 30
0.0
 40
4.8865234374999993
  1
DATE
 41
0.7
 11
70.199999999999989
 21
-355.40696656249997
 31
0.0
 73
     3
  0
TEXT
  5
39
  8
HIBINO-BASE
 62
     7
 10
40.200000000000003
 20
-360.29349000000002
 30
0.0
 40
4.8865234374999993
  1
SCALE
 41
0.7
 11
40.200000000000003
 21
-355.40696656249997
 31
0.0
 73
     3
  0
TEXT
  5
3A
  8
HIBINO-BASE
 62
     7
 10
107.7
 20
-360.29349000000002
 30
0.0
 40
4.8865234374999993
  1
DESIGN
 41
0.7
 11
107.7
 21
-355.40696656249997
 31
0.0
 73
     3
  0
TEXT
  5
3B
  8
HIBINO-BASE
 62
     7
 10
220.19999999999999
 20
-360.29349000000002
 30
0.0
 40
4.8865234374999993
  1
DRAWING NO.
 41
0.7
 11
220.19999999999999
 21
-355.40696656249997
 31
0.0
 73
     3
  0
TEXT
  5
3C
  8
HIBINO-BASE
 62
     7
 10
182.69999999999999
 20
-360.29349000000002
 30
0.0
 40
4.8865234374999993
  1
CHECK
 41
0.7
 11
182.69999999999999
 21
-355.40696656249997
 31
0.0
 73
     3
  0
LINE
  5
3D
  8
HIBINO-BASE
  6
CONTINUOUS
 62
     7
 10
43.125000000000021
 20
-379.18637000000001
 30
0.0
 11
54.375000000000071
 21
-367.93637000000001
 31
0.0
  0
TEXT
  5
3E
  8
HIBINO-BASE
 62
     7
 10
41.250000000000007
 20
-371.2632000000001
 30
0.0
 40
4.8865234374999993
  1
1
 41
0.7
 11
41.250000000000007
 21
-366.37667656250011
 31
0.0
 73
     3
  0
LINE
  5
3F
  8
HIBINO-BASE
  6
CONTINUOUS
 62
     7
 10
37.500000000000021
 20
-382.93637000000001
 30
0.0
 11
37.500000000000021
 21
-352.93637000000001
 31
0.0
  0
LINE
  5
40
  8
HIBINO-BASE
  6
CONTINUOUS
 62
     7
 10
67.499999999999972
 20
-382.93637000000001
 30
0.0
 11
67.499999999999972
 21
-352.93637000000001
 31
0.0
  0
LINE
  5
41
  8
HIBINO-BASE
  6
CONTINUOUS
 62
     7
 10
142.49999999999989
 20
-352.93637000000001
 30
0.0
 11
142.49999999999989
 21
-382.93637000000001
 31
0.0
  0
LINE
  5
42
  8
HIBINO-BASE
  6
CONTINUOUS
 62
     7
 10
217.50000000000011
 20
-352.93637000000001
 30
0.0
 11
217.50000000000011
 21
-382.93637000000001
 31
0.0
  0
LINE
  5
43
  8
HIBINO-BASE
  6
CONTINUOUS
 62
     7
 10
179.99999999999989
 20
-382.93637000000001
 30
0.0
 11
179.99999999999989
 21
-352.93637000000001
 31
0.0
  0
TEXT
  5
44
  8
HIBINO-BASE
 62
     7
 10
70.069620000000043
 20
-374.34543000000002
 30
0.0
 40
4.8865234374999993
  1
'13.02.
 41
0.7
 11
70.069620000000043
 21
-369.45890656249998
 31
0.0
 73
     3
  0
TEXT
  5
45
  8
HIBINO-BASE
 62
     7
 10
52.500000000000021
 20
-376.88819999999998
 30
0.0
 40
4.8865234374999993
  1
3
 41
0.7
 11
52.500000000000021
 21
-372.00167656249999
 31
0.0
 73
     3
  0
TEXT
  5
46
  8
HIBINO-BASE
 62
     7
 10
147.01743003310381
 20
-374.34543000000002
 30
0.0
 40
4.8865234374999993
  1
N.Sasaki
 41
0.7
 11
147.01743003310381
 21
-369.45890656249998
 31
0.0
 73
     3
  0
TEXT
  5
47
  8
HIBINO-BASE
 62
     7
 10
11.65000000000008
 20
-377.00837000000001
 30
0.0
 40
9.7730468749999986
  1
A4
 41
0.7
 11
11.65000000000008
 21
-367.23532312499998
 31
0.0
 73
     3
  0
TEXT
  5
48
  8
HIBINO-BASE
 62
     7
 10
2.8750000000000062
 20
-360.794735
 30
0.0
 40
4.8865234374999993
  1
PAPER SIZE
 41
0.7
 11
2.8750000000000071
 21
-355.90821156250001
 31
0.0
 73
     3
  0
TEXT
  5
49
  8
HIBINO-BASE
 62
     7
 10
-248.44799999999989
 20
-402.1624033999999
 30
0.0
 40
10.800132539062499
  1
Hibino Corporation
 41
0.7
 11
-248.44799999999989
 21
-391.36227086093749
 31
0.0
 73
     3
  0
TEXT
  5
4A
  8
HIBINO-BASE
 62
     7
 10
150.20517000000001
 20
-402.1624033999999
 30
0.0
 40
10.800132539062499
  1
ヒビノ株式会社
 41
0.7
 11
150.20517000000001
 21
-391.36227086093749
 31
0.0
 73
     3
  0
LINE
  5
4B
  8
PATTERN_FILL
  6
CONTINUOUS
 62
     7
 10
-141.17484780491009
 20
109.81852792460479
 30
0.0
 11
-127.6781599401062
 21
96.321840059800593
 31
0.0
  0
LINE
  5
4C
  8
PATTERN_FILL
  6
CONTINUOUS
 62
     7
 10
-144.78227424602011
 20
110.9259543657148
 30
0.0
 11
-126.5740456341921
 21
92.717725753886569
 31
0.0
  0
LINE
  5
4D
  8
PATTERN_FILL
  6
CONTINUOUS
 62
     7
 10
-147.75068263332341
 20
111.3943627530182
 30
0.0
 11
-126.1056372468888
 21
89.749317366583327
 31
0.0
  0
LINE
  5
4E
  8
PATTERN_FILL
  6
CONTINUOUS
 62
     7
 10
-150.35371321686759
 20
111.4973933365624
 30
0.0
 11
-126.00260666334459
 21
87.146286783039059
 31
0.0
  0
LINE
  5
4F
  8
PATTERN_FILL
  6
CONTINUOUS
 62
     7
 10
-152.70355815429579
 20
111.3472382739907
 30
0.0
 11
-126.15276172591631
 21
84.796441845610815
 31
0.0
  0
LINE
  5
50
  8
PATTERN_FILL
  6
CONTINUOUS
 62
     7
 10
-154.8592493868083
 20
111.00292950650299
 30
0.0
 11
-126.4970704934039
 21
82.64075061309839
 31
0.0
  0
LINE
  5
51
  8
PATTERN_FILL
  6
CONTINUOUS
 62
     7
 10
-156.85616710936421
 20
110.499847229059
 30
0.0
 11
-127.000152770848
 21
80.643832890542427
 31
0.0
  0
LINE
  5
52
  8
PATTERN_FILL
  6
CONTINUOUS
 62
     7
 10
-158.717223560398
 20
109.8609036800928
 30
0.0
 11
-127.6390963198142
 21
78.78277643950868
 31
0.0
  0
LINE
  5
53
  8
PATTERN_FILL
  6
CONTINUOUS
 62
     7
 10
-160.45796338074541
 20
109.1016435004402
 30
0.0
 11
-128.39835649946679
 21
77.042036619161209
 31
0.0
  0
LINE
  5
54
  8
PATTERN_FILL
  6
CONTINUOUS
 62
     7
 10
-162.08918362833441
 20
108.2328637480291
 30
0.0
 11
-129.2671362518779
 21
75.410816371572324
 31
0.0
  0
LINE
  5
55
  8
PATTERN_FILL
  6
CONTINUOUS
 62
     7
 10
-163.61839057499071
 20
107.26207069468541
 30
0.0
 11
-130.2379293052214
 21
73.881609424915922
 31
0.0
  0
LINE
  5
56
  8
PATTERN_FILL
  6
CONTINUOUS
 62
     7
 10
-165.05064934729481
 20
106.1943294669896
 30
0.0
 11
-131.3056705329173
 21
72.449350652611813
 31
0.0
  0
LINE
  5
57
  8
PATTERN_FILL
  6
CONTINUOUS
 62
     7
 10
-166.38908559131241
 20
105.0327657110073
 30
0.0
 11
-132.4672342888997
 21
71.110914408594141
 31
0.0
  0
LINE
  5
58
  8
PATTERN_FILL
  6
CONTINUOUS
 62
     7
 10
-167.63516731451651
 20
103.7788474342111
 30
0.0
 11
-133.7211525656956
 21
69.864832685390155
 31
0.0
  0
LINE
  5
59
  8
PATTERN_FILL
  6
CONTINUOUS
 62
     7
 10
-168.7888301298068
 20
102.4325102495015
 30
0.0
 11
-135.06748975040529
 21
68.711169870099866
 31
0.0
  0
LINE
  5
5A
  8
PATTERN_FILL
  6
CONTINUOUS
 62
     7
 10
-169.8484718566815
 20
100.99215197637621
 30
0.0
 11
-136.5078480235305
 21
67.651528143225107
 31
0.0
  0
LINE
  5
5B
  8
PATTERN_FILL
  6
CONTINUOUS
 62
     7
 10
-170.81081538865811
 20
99.454495508352792
 30
0.0
 11
-138.04550449155391
 21
66.689184611248493
 31
0.0
  0
LINE
  5
5C
  8
PATTERN_FILL
  6
CONTINUOUS
 62
     7
 10
-171.67061127490851
 20
97.814291394603231
 30
0.0
 11
-139.68570860530349
 21
65.82938872499804
 31
0.0
  0
LINE
  5
5D
  8
PATTERN_FILL
  6
CONTINUOUS
 62
     7
 10
-172.42011268487261
 20
96.063792804567356
 30
0.0
 11
-141.4281599401061
 21
65.071840059800621
 31
0.0
  0
LINE
  5
5E
  8
PATTERN_FILL
  6
CONTINUOUS
 62
     7
 10
-173.04818683975
 20
94.191866959444695
 30
0.0
 11
-143.30813304046191
 21
64.451813160156547
 31
0.0
  0
LINE
  5
5F
  8
PATTERN_FILL
  6
CONTINUOUS
 62
     7
 10
-173.53878714608771
 20
92.182467265782435
 30
0.0
 11
-145.3175327341242
 21
63.961212853818807
 31
0.0
  0
LINE
  5
60
  8
PATTERN_FILL
  6
CONTINUOUS
 62
     7
 10
-173.86819027730559
 20
90.011870397000308
 30
0.0
 11
-147.4881296029063
 21
63.63180972260092
 31
0.0
  0
LINE
  5
61
  8
PATTERN_FILL
  6
CONTINUOUS
 62
     7
 10
-173.99957246914769
 20
87.643252588842316
 30
0.0
 11
-149.85674741106439
 21
63.500427530758898
 31
0.0
  0
LINE
  5
62
  8
PATTERN_FILL
  6
CONTINUOUS
 62
     7
 10
-173.87096596080781
 20
85.014646080502544
 30
0.0
 11
-152.4853539194041
 21
63.629034039098691
 31
0.0
  0
LINE
  5
63
  8
PATTERN_FILL
  6
CONTINUOUS
 62
     7
 10
-173.36282281826851
 20
82.006502937963134
 30
0.0
 11
-155.49349706194349
 21
64.137177181638123
 31
0.0
  0
LINE
  5
64
  8
PATTERN_FILL
  6
CONTINUOUS
 62
     7
 10
-172.17395095402179
 20
78.317631073716456
 30
0.0
 11
-159.18236892619009
 21
65.326049045884787
 31
0.0
  0
LINE
  5
65
  8
PATTERN_FILL
  6
CONTINUOUS
 62
     7
 10
-159.43038767024581
 20
109.5696123296611
 30
0.0
 11
-172.0696123300103
 21
96.930387669896319
 31
0.0
  0
LINE
  5
66
  8
PATTERN_FILL
  6
CONTINUOUS
 62
     7
 10
-155.68240395585391
 20
110.817596044053
 30
0.0
 11
-173.31759604440219
 21
93.182403955504384
 31
0.0
  0
LINE
  5
67
  8
PATTERN_FILL
  6
CONTINUOUS
 62
     7
 10
-152.64634496990391
 20
111.3536550300031
 30
0.0
 11
-173.8536550303522
 21
90.146344969554278
 31
0.0
  0
LINE
  5
68
  8
PATTERN_FILL
  6
CONTINUOUS
 62
     7
 10
-150.0000000001281
 20
111.49999999977889
 30
0.0
 11
-174.0000000001279
 21
87.499999999778552
 31
0.0
  0
LINE
  5
69
  8
PATTERN_FILL
  6
CONTINUOUS
 62
     7
 10
-147.6184540134592
 20
111.3815459864478
 30
0.0
 11
-173.88154598679679
 21
85.118454013109627
 31
0.0
  0
LINE
  5
6A
  8
PATTERN_FILL
  6
CONTINUOUS
 62
     7
 10
-145.43763888970301
 20
111.06236111020399
 30
0.0
 11
-173.5623611105533
 21
82.937638889353337
 31
0.0
  0
LINE
  5
6B
  8
PATTERN_FILL
  6
CONTINUOUS
 62
     7
 10
-143.4197100501643
 20
110.58028994974261
 30
0.0
 11
-173.0802899500919
 21
80.919710049814654
 31
0.0
  0
LINE
  5
6C
  8
PATTERN_FILL
  6
CONTINUOUS
 62
     7
 10
-141.54037516638789
 20
109.9596248335191
 30
0.0
 11
-172.4596248338683
 21
79.04037516603826
 31
0.0
  0
LINE
  5
6D
  8
PATTERN_FILL
  6
CONTINUOUS
 62
     7
 10
-139.7832376482923
 20
109.21676235161461
 30
0.0
 11
-171.71676235196381
 21
77.283237647942784
 31
0.0
  0
LINE
  5
6E
  8
PATTERN_FILL
  6
CONTINUOUS
 62
     7
 10
-138.1369318281746
 20
108.36306817173229
 30
0.0
 11
-170.8630681720816
 21
75.636931827824924
 31
0.0
  0
LINE
  5
6F
  8
PATTERN_FILL
  6
CONTINUOUS
 62
     7
 10
-136.59354479501309
 20
107.4064552048937
 30
0.0
 11
-169.90645520524291
 21
74.093544794663643
 31
0.0
  0
LINE
  5
70
  8
PATTERN_FILL
  6
CONTINUOUS
 62
     7
 10
-135.1477004537754
 20
106.35229954613141
 30
0.0
 11
-168.85229954648079
 21
72.647700453425813
 31
0.0
  0
LINE
  5
71
  8
PATTERN_FILL
  6
CONTINUOUS
 62
     7
 10
-133.79601816694219
 20
105.2039818329647
 30
0.0
 11
-167.703981833314
 21
71.296018166592575
 31
0.0
  0
LINE
  5
72
  8
PATTERN_FILL
  6
CONTINUOUS
 62
     7
 10
-132.53680454644081
 20
103.963195453466
 30
0.0
 11
-166.4631954538155
 21
70.03680454609119
 31
0.0
  0
LINE
  5
73
  8
PATTERN_FILL
  6
CONTINUOUS
 62
     7
 10
-131.36990817573329
 20
102.63009182417341
 30
0.0
 11
-165.13009182452279
 21
68.869908175383785
 31
0.0
  0
LINE
  5
74
  8
PATTERN_FILL
  6
CONTINUOUS
 62
     7
 10
-130.2967069116381
 20
101.20329308826869
 30
0.0
 11
-163.7032930886181
 21
67.796706911288538
 31
0.0
  0
LINE
  5
75
  8
PATTERN_FILL
  6
CONTINUOUS
 62
     7
 10
-129.3202251994804
 20
99.679774800426415
 30
0.0
 11
-162.17977480077579
 21
66.820225199130846
 31
0.0
  0
LINE
  5
76
  8
PATTERN_FILL
  6
CONTINUOUS
 62
     7
 10
-128.44540564212579
 20
98.054594357780914
 30
0.0
 11
-160.5545943581304
 21
65.945405641776318
 31
0.0
  0
LINE
  5
77
  8
PATTERN_FILL
  6
CONTINUOUS
 62
     7
 10
-127.6781599401062
 20
96.321840059800593
 30
0.0
 11
-158.82040461914821
 21
65.17959538075857
 31
0.0
  0
LINE
  5
78
  8
PATTERN_FILL
  6
CONTINUOUS
 62
     7
 10
-127.0333704530324
 20
94.466629546874316
 30
0.0
 11
-156.96662954722399
 21
64.533370452682803
 31
0.0
  0
LINE
  5
79
  8
PATTERN_FILL
  6
CONTINUOUS
 62
     7
 10
-126.5219467249959
 20
92.478053274910764
 30
0.0
 11
-154.97805327526029
 21
64.021946724646426
 31
0.0
  0
LINE
  5
7A
  8
PATTERN_FILL
  6
CONTINUOUS
 62
     7
 10
-126.1677083741548
 20
90.332291625751921
 30
0.0
 11
-152.83229162610141
 21
63.66770837380524
 31
0.0
  0
LINE
  5
7B
  8
PATTERN_FILL
  6
CONTINUOUS
 62
     7
 10
-126.0051031038697
 20
87.994896896037005
 30
0.0
 11
-150.5000000001281
 21
63.499999999778609
 31
0.0
  0
LINE
  5
7C
  8
PATTERN_FILL
  6
CONTINUOUS
 62
     7
 10
-126.09128788549241
 20
85.408712114414243
 30
0.0
 11
-147.9087121147638
 21
63.591287885142918
 31
0.0
  0
LINE
  5
7D
  8
PATTERN_FILL
  6
CONTINUOUS
 62
     7
 10
-126.5338457045448
 20
82.466154295361903
 30
0.0
 11
-144.96615429571159
 21
64.03384570419523
 31
0.0
  0
LINE
  5
7E
  8
PATTERN_FILL
  6
CONTINUOUS
 62
     7
 10
-127.58986251958549
 20
78.910137480321183
 30
0.0
 11
-141.42815994010621
 21
65.071840059800621
 31
0.0
  0
LINE
  5
7F
  8
PATTERN_FILL
  6
CONTINUOUS
 62
     7
 10
-130.52282197146931
 20
73.47717802843745
 30
0.0
 11
-135.97717802878711
 21
68.02282197111964
 31
0.0
  0
LINE
  5
80
  8
PATTERN_FILL
  6
CONTINUOUS
 62
     7
 10
-138.0000000001281
 20
36.99999999977868
 30
0.0
 11
-133.91872791532251
 21
32.918727914973012
 31
0.0
  0
LINE
  5
81
  8
PATTERN_FILL
  6
CONTINUOUS
 62
     7
 10
-140.5000000001281
 20
36.99999999977868
 30
0.0
 11
-133.0176678446511
 21
29.517667844301659
 31
0.0
  0
LINE
  5
82
  8
PATTERN_FILL
  6
CONTINUOUS
 62
     7
 10
-143.0000000001281
 20
36.99999999977868
 30
0.0
 11
-132.11660777397981
 21
26.116607773630282
 31
0.0
  0
LINE
  5
83
  8
PATTERN_FILL
  6
CONTINUOUS
 62
     7
 10
-145.5000000001281
 20
36.99999999977868
 30
0.0
 11
-131.2155477033084
 21
22.715547702958961
 31
0.0
  0
LINE
  5
84
  8
PATTERN_FILL
  6
CONTINUOUS
 62
     7
 10
-148.0000000001281
 20
36.99999999977868
 30
0.0
 11
-130.314487632637
 21
19.31448763228758
 31
0.0
  0
LINE
  5
85
  8
PATTERN_FILL
  6
CONTINUOUS
 62
     7
 10
-150.5000000001281
 20
36.99999999977868
 30
0.0
 11
-129.41342756196559
 21
15.91342756161621
 31
0.0
  0
LINE
  5
86
  8
PATTERN_FILL
  6
CONTINUOUS
 62
     7
 10
-153.0000000001281
 20
36.99999999977868
 30
0.0
 11
-128.51236749129421
 21
12.51236749094485
 31
0.0
  0
LINE
  5
87
  8
PATTERN_FILL
  6
CONTINUOUS
 62
     7
 10
-155.5000000001281
 20
36.99999999977868
 30
0.0
 11
-127.61130742062279
 21
9.1113074202734872
 31
0.0
  0
LINE
  5
88
  8
PATTERN_FILL
  6
CONTINUOUS
 62
     7
 10
-158.0000000001281
 20
36.99999999977868
 30
0.0
 11
-126.7102473499514
 21
5.7102473496021551
 31
0.0
  0
LINE
  5
89
  8
PATTERN_FILL
  6
CONTINUOUS
 62
     7
 10
-160.5000000001281
 20
36.99999999977868
 30
0.0
 11
-125.80918727928
 21
2.3091872789308199
 31
0.0
  0
LINE
  5
8A
  8
PATTERN_FILL
  6
CONTINUOUS
 62
     7
 10
-163.0000000001281
 20
36.99999999977868
 30
0.0
 11
-124.9081272086087
 21
-1.0918727917405411
 31
0.0
  0
LINE
  5
8B
  8
PATTERN_FILL
  6
CONTINUOUS
 62
     7
 10
-164.98067503148181
 20
36.480675031132463
 30
0.0
 11
-127.0000000001281
 21
-1.500000000221092
 31
0.0
  0
LINE
  5
8C
  8
PATTERN_FILL
  6
CONTINUOUS
 62
     7
 10
-165.62833675577491
 20
34.628336755425472
 30
0.0
 11
-129.5000000001281
 21
-1.500000000221092
 31
0.0
  0
LINE
  5
8D
  8
PATTERN_FILL
  6
CONTINUOUS
 62
     7
 10
-166.15195071881379
 20
32.651950718464491
 30
0.0
 11
-132.0000000001281
 21
-1.500000000221092
 31
0.0
  0
LINE
  5
8E
  8
PATTERN_FILL
  6
CONTINUOUS
 62
     7
 10
-166.6755646818529
 20
30.67556468150352
 30
0.0
 11
-134.5000000001281
 21
-1.500000000221092
 31
0.0
  0
LINE
  5
8F
  8
PATTERN_FILL
  6
CONTINUOUS
 62
     7
 10
-167.1991786448919
 20
28.699178644542521
 30
0.0
 11
-137.0000000001281
 21
-1.50000000022112
 31
0.0
  0
LINE
  5
90
  8
PATTERN_FILL
  6
CONTINUOUS
 62
     7
 10
-127.0000000001281
 20
-11.500000000221
 30
0.0
 11
-126.5272727274008
 21
-11.972727272948299
 31
0.0
  0
LINE
  5
91
  8
PATTERN_FILL
  6
CONTINUOUS
 62
     7
 10
-167.7500000001281
 20
26.749999999778709
 30
0.0
 11
-139.5000000001281
 21
-1.50000000022112
 31
0.0
  0
LINE
  5
92
  8
PATTERN_FILL
  6
CONTINUOUS
 62
     7
 10
-129.5000000001281
 20
-11.500000000221
 30
0.0
 11
-127.0575757577039
 21
-13.94242424264521
 31
0.0
  0
LINE
  5
93
  8
PATTERN_FILL
  6
CONTINUOUS
 62
     7
 10
-168.2464065709699
 20
24.746406570620589
 30
0.0
 11
-142.0000000001281
 21
-1.50000000022112
 31
0.0
  0
LINE
  5
94
  8
PATTERN_FILL
  6
CONTINUOUS
 62
     7
 10
-132.0000000001281
 20
-11.500000000221
 30
0.0
 11
-127.5878787880069
 21
-15.91212121234218
 31
0.0
  0
LINE
  5
95
  8
PATTERN_FILL
  6
CONTINUOUS
 62
     7
 10
-168.77002053400889
 20
22.770020533659611
 30
0.0
 11
-144.5000000001281
 21
-1.500000000221092
 31
0.0
  0
LINE
  5
96
  8
PATTERN_FILL
  6
CONTINUOUS
 62
     7
 10
-134.5000000001281
 20
-11.500000000221
 30
0.0
 11
-128.11818181830989
 21
-17.881818182039119
 31
0.0
  0
LINE
  5
97
  8
PATTERN_FILL
  6
CONTINUOUS
 62
     7
 10
-169.293634497048
 20
20.793634496698669
 30
0.0
 11
-147.0000000001281
 21
-1.500000000221092
 31
0.0
  0
LINE
  5
98
  8
PATTERN_FILL
  6
CONTINUOUS
 62
     7
 10
-137.0000000001281
 20
-11.500000000221
 30
0.0
 11
-129.20000000012811
 21
-19.300000000220951
 31
0.0
  0
LINE
  5
99
  8
PATTERN_FILL
  6
CONTINUOUS
 62
     7
 10
-169.81724846008689
 20
18.817248459737691
 30
0.0
 11
-149.5000000001281
 21
-1.500000000221092
 31
0.0
  0
LINE
  5
9A
  8
PATTERN_FILL
  6
CONTINUOUS
 62
     7
 10
-139.5000000001281
 20
-11.500000000221
 30
0.0
 11
-131.70000000012811
 21
-19.300000000220951
 31
0.0
  0
LINE
  5
9B
  8
PATTERN_FILL
  6
CONTINUOUS
 62
     7
 10
-170.34086242312591
 20
16.840862422776699
 30
0.0
 11
-152.0000000001281
 21
-1.500000000221092
 31
0.0
  0
LINE
  5
9C
  8
PATTERN_FILL
  6
CONTINUOUS
 62
     7
 10
-142.0000000001281
 20
-11.500000000221
 30
0.0
 11
-134.20000000012811
 21
-19.300000000220951
 31
0.0
  0
LINE
  5
9D
  8
PATTERN_FILL
  6
CONTINUOUS
 62
     7
 10
-170.86447638616491
 20
14.864476385815729
 30
0.0
 11
-154.5000000001281
 21
-1.500000000221092
 31
0.0
  0
LINE
  5
9E
  8
PATTERN_FILL
  6
CONTINUOUS
 62
     7
 10
-144.5000000001281
 20
-11.500000000221
 30
0.0
 11
-136.70000000012811
 21
-19.300000000220951
 31
0.0
  0
LINE
  5
9F
  8
PATTERN_FILL
  6
CONTINUOUS
 62
     7
 10
-171.38809034920391
 20
12.888090348854769
 30
0.0
 11
-157.0000000001281
 21
-1.500000000221092
 31
0.0
  0
LINE
  5
A0
  8
PATTERN_FILL
  6
CONTINUOUS
 62
     7
 10
-147.0000000001281
 20
-11.500000000221
 30
0.0
 11
-139.20000000012811
 21
-19.300000000220951
 31
0.0
  0
LINE
  5
A1
  8
PATTERN_FILL
  6
CONTINUOUS
 62
     7
 10
-171.91170431224279
 20
10.911704311893789
 30
0.0
 11
-159.5000000001281
 21
-1.500000000221092
 31
0.0
  0
LINE
  5
A2
  8
PATTERN_FILL
  6
CONTINUOUS
 62
     7
 10
-149.5000000001281
 20
-11.500000000221
 30
0.0
 11
-141.70000000012811
 21
-19.300000000220951
 31
0.0
  0
LINE
  5
A3
  8
PATTERN_FILL
  6
CONTINUOUS
 62
     7
 10
-172.4353182752819
 20
8.9353182749327846
 30
0.0
 11
-162.0000000001281
 21
-1.500000000221092
 31
0.0
  0
LINE
  5
A4
  8
PATTERN_FILL
  6
CONTINUOUS
 62
     7
 10
-152.0000000001281
 20
-11.500000000221
 30
0.0
 11
-144.20000000012811
 21
-19.300000000220951
 31
0.0
  0
LINE
  5
A5
  8
PATTERN_FILL
  6
CONTINUOUS
 62
     7
 10
-172.9589322383209
 20
6.9589322379718226
 30
0.0
 11
-164.5000000001281
 21
-1.500000000221092
 31
0.0
  0
LINE
  5
A6
  8
PATTERN_FILL
  6
CONTINUOUS
 62
     7
 10
-154.5000000001281
 20
-11.500000000221
 30
0.0
 11
-146.70000000012811
 21
-19.300000000220951
 31
0.0
  0
LINE
  5
A7
  8
PATTERN_FILL
  6
CONTINUOUS
 62
     7
 10
-173.48254620136001
 20
4.9825462010108756
 30
0.0
 11
-167.0000000001281
 21
-1.500000000221092
 31
0.0
  0
LINE
  5
A8
  8
PATTERN_FILL
  6
CONTINUOUS
 62
     7
 10
-157.0000000001281
 20
-11.500000000221
 30
0.0
 11
-149.20000000012811
 21
-19.300000000220951
 31
0.0
  0
LINE
  5
A9
  8
PATTERN_FILL
  6
CONTINUOUS
 62
     7
 10
-174.00616016439901
 20
3.0061601640498732
 30
0.0
 11
-169.50000000012801
 21
-1.500000000221092
 31
0.0
  0
LINE
  5
AA
  8
PATTERN_FILL
  6
CONTINUOUS
 62
     7
 10
-159.5000000001281
 20
-11.500000000221
 30
0.0
 11
-151.70000000012811
 21
-19.300000000220951
 31
0.0
  0
LINE
  5
AB
  8
PATTERN_FILL
  6
CONTINUOUS
 62
     7
 10
-174.529774127438
 20
1.0297741270889269
 30
0.0
 11
-172.00000000012801
 21
-1.500000000221092
 31
0.0
  0
LINE
  5
AC
  8
PATTERN_FILL
  6
CONTINUOUS
 62
     7
 10
-162.0000000001281
 20
-11.500000000221
 30
0.0
 11
-154.20000000012811
 21
-19.300000000220951
 31
0.0
  0
LINE
  5
AD
  8
PATTERN_FILL
  6
CONTINUOUS
 62
     7
 10
-175.05338809047711
 20
-0.9466119098720183
 30
0.0
 11
-174.5000000001279
 21
-1.500000000221092
 31
0.0
  0
LINE
  5
AE
  8
PATTERN_FILL
  6
CONTINUOUS
 62
     7
 10
-164.5000000001281
 20
-11.500000000221
 30
0.0
 11
-156.70000000012811
 21
-19.300000000220951
 31
0.0
  0
LINE
  5
AF
  8
PATTERN_FILL
  6
CONTINUOUS
 62
     7
 10
-167.0000000001281
 20
-11.500000000221
 30
0.0
 11
-159.20000000012811
 21
-19.300000000220951
 31
0.0
  0
LINE
  5
B0
  8
PATTERN_FILL
  6
CONTINUOUS
 62
     7
 10
-169.50000000012801
 20
-11.500000000221
 30
0.0
 11
-161.70000000012811
 21
-19.300000000220951
 31
0.0
  0
LINE
  5
B1
  8
PATTERN_FILL
  6
CONTINUOUS
 62
     7
 10
-172.00000000012801
 20
-11.500000000221
 30
0.0
 11
-164.20000000012811
 21
-19.300000000220951
 31
0.0
  0
LINE
  5
B2
  8
PATTERN_FILL
  6
CONTINUOUS
 62
     7
 10
-173.26842105275949
 20
-12.73157894758941
 30
0.0
 11
-166.700000000128
 21
-19.300000000220951
 31
0.0
  0
LINE
  5
B3
  8
PATTERN_FILL
  6
CONTINUOUS
 62
     7
 10
-172.3473684211807
 20
-16.152631579168311
 30
0.0
 11
-169.200000000128
 21
-19.300000000220951
 31
0.0
  0
LINE
  5
B4
  8
PATTERN_FILL
  6
CONTINUOUS
 62
     7
 10
-162.5000000001281
 20
36.99999999977868
 30
0.0
 11
-165.90106007079939
 21
33.598939929107303
 31
0.0
  0
LINE
  5
B5
  8
PATTERN_FILL
  6
CONTINUOUS
 62
     7
 10
-160.0000000001281
 20
36.99999999977868
 30
0.0
 11
-166.80212014147079
 21
30.19787985843589
 31
0.0
  0
LINE
  5
B6
  8
PATTERN_FILL
  6
CONTINUOUS
 62
     7
 10
-157.5000000001281
 20
36.99999999977868
 30
0.0
 11
-167.7500000001281
 21
26.749999999778709
 31
0.0
  0
LINE
  5
B7
  8
PATTERN_FILL
  6
CONTINUOUS
 62
     7
 10
-155.0000000001281
 20
36.99999999977868
 30
0.0
 11
-168.60424028281349
 21
23.395759717093231
 31
0.0
  0
LINE
  5
B8
  8
PATTERN_FILL
  6
CONTINUOUS
 62
     7
 10
-152.5000000001281
 20
36.99999999977868
 30
0.0
 11
-169.5053003534849
 21
19.99469964642185
 31
0.0
  0
LINE
  5
B9
  8
PATTERN_FILL
  6
CONTINUOUS
 62
     7
 10
-150.0000000001281
 20
36.99999999977868
 30
0.0
 11
-170.4063604241563
 21
16.593639575750512
 31
0.0
  0
LINE
  5
BA
  8
PATTERN_FILL
  6
CONTINUOUS
 62
     7
 10
-147.5000000001281
 20
36.99999999977868
 30
0.0
 11
-171.3074204948276
 21
13.19257950507915
 31
0.0
  0
LINE
  5
BB
  8
PATTERN_FILL
  6
CONTINUOUS
 62
     7
 10
-145.0000000001281
 20
36.99999999977868
 30
0.0
 11
-172.208480565499
 21
9.7915194344077605
 31
0.0
  0
LINE
  5
BC
  8
PATTERN_FILL
  6
CONTINUOUS
 62
     7
 10
-142.5000000001281
 20
36.99999999977868
 30
0.0
 11
-173.10954063617041
 21
6.3904593637363956
 31
0.0
  0
LINE
  5
BD
  8
PATTERN_FILL
  6
CONTINUOUS
 62
     7
 10
-140.0000000001281
 20
36.99999999977868
 30
0.0
 11
-174.0106007068417
 21
2.9893992930650191
 31
0.0
  0
LINE
  5
BE
  8
PATTERN_FILL
  6
CONTINUOUS
 62
     7
 10
-137.5000000001281
 20
36.99999999977868
 30
0.0
 11
-174.91166077751311
 21
-0.4116607776062722
 31
0.0
  0
LINE
  5
BF
  8
PATTERN_FILL
  6
CONTINUOUS
 62
     7
 10
-135.28068870106139
 20
36.719311298845412
 30
0.0
 11
-173.50000000012801
 21
-1.500000000221092
 31
0.0
  0
LINE
  5
C0
  8
PATTERN_FILL
  6
CONTINUOUS
 62
     7
 10
-134.4763860370891
 20
35.023613962817677
 30
0.0
 11
-171.00000000012801
 21
-1.500000000221092
 31
0.0
  0
LINE
  5
C1
  8
PATTERN_FILL
  6
CONTINUOUS
 62
     7
 10
-133.9527720740501
 20
33.047227925856681
 30
0.0
 11
-168.5000000001281
 21
-1.500000000221092
 31
0.0
  0
LINE
  5
C2
  8
PATTERN_FILL
  6
CONTINUOUS
 62
     7
 10
-133.42915811101111
 20
31.070841888895728
 30
0.0
 11
-166.0000000001281
 21
-1.500000000221092
 31
0.0
  0
LINE
  5
C3
  8
PATTERN_FILL
  6
CONTINUOUS
 62
     7
 10
-132.90554414797211
 20
29.094455851934729
 30
0.0
 11
-163.5000000001281
 21
-1.500000000221092
 31
0.0
  0
LINE
  5
C4
  8
PATTERN_FILL
  6
CONTINUOUS
 62
     7
 10
-173.50000000012801
 20
-11.500000000221
 30
0.0
 11
-173.5787878789159
 21
-11.57878787900893
 31
0.0
  0
LINE
  5
C5
  8
PATTERN_FILL
  6
CONTINUOUS
 62
     7
 10
-132.38193018493311
 20
27.118069814973751
 30
0.0
 11
-161.0000000001281
 21
-1.500000000221092
 31
0.0
  0
LINE
  5
C6
  8
PATTERN_FILL
  6
CONTINUOUS
 62
     7
 10
-171.0000000001279
 20
-11.500000000221
 30
0.0
 11
-173.0484848486129
 21
-13.54848484870584
 31
0.0
  0
LINE
  5
C7
  8
PATTERN_FILL
  6
CONTINUOUS
 62
     7
 10
-131.858316221894
 20
25.141683778012752
 30
0.0
 11
-158.5000000001281
 21
-1.500000000221092
 31
0.0
  0
LINE
  5
C8
  8
PATTERN_FILL
  6
CONTINUOUS
 62
     7
 10
-168.50000000012801
 20
-11.500000000221
 30
0.0
 11
-172.51818181830981
 21
-15.51818181840283
 31
0.0
  0
LINE
  5
C9
  8
PATTERN_FILL
  6
CONTINUOUS
 62
     7
 10
-131.334702258855
 20
23.16529774105183
 30
0.0
 11
-156.0000000001281
 21
-1.500000000221092
 31
0.0
  0
LINE
  5
CA
  8
PATTERN_FILL
  6
CONTINUOUS
 62
     7
 10
-166.0000000001281
 20
-11.500000000221
 30
0.0
 11
-171.9878787880067
 21
-17.487878788099749
 31
0.0
  0
LINE
  5
CB
  8
PATTERN_FILL
  6
CONTINUOUS
 62
     7
 10
-130.81108829581601
 20
21.188911704090831
 30
0.0
 11
-153.5000000001281
 21
-1.500000000221092
 31
0.0
  0
LINE
  5
CC
  8
PATTERN_FILL
  6
CONTINUOUS
 62
     7
 10
-163.5000000001281
 20
-11.500000000221
 30
0.0
 11
-171.30000000012811
 21
-19.300000000220951
 31
0.0
  0
LINE
  5
CD
  8
PATTERN_FILL
  6
CONTINUOUS
 62
     7
 10
-130.28747433277701
 20
19.212525667129881
 30
0.0
 11
-151.0000000001281
 21
-1.50000000022112
 31
0.0
  0
LINE
  5
CE
  8
PATTERN_FILL
  6
CONTINUOUS
 62
     7
 10
-161.0000000001281
 20
-11.500000000221
 30
0.0
 11
-168.80000000012811
 21
-19.300000000220951
 31
0.0
  0
LINE
  5
CF
  8
PATTERN_FILL
  6
CONTINUOUS
 62
     7
 10
-129.76386036973801
 20
17.236139630168889
 30
0.0
 11
-148.5000000001281
 21
-1.500000000221092
 31
0.0
  0
LINE
  5
D0
  8
PATTERN_FILL
  6
CONTINUOUS
 62
     7
 10
-158.5000000001281
 20
-11.500000000221
 30
0.0
 11
-166.30000000012811
 21
-19.300000000220951
 31
0.0
  0
LINE
  5
D1
  8
PATTERN_FILL
  6
CONTINUOUS
 62
     7
 10
-129.24024640669899
 20
15.259753593207909
 30
0.0
 11
-146.0000000001281
 21
-1.500000000221092
 31
0.0
  0
LINE
  5
D2
  8
PATTERN_FILL
  6
CONTINUOUS
 62
     7
 10
-156.0000000001281
 20
-11.500000000221
 30
0.0
 11
-163.80000000012811
 21
-19.300000000220951
 31
0.0
  0
LINE
  5
D3
  8
PATTERN_FILL
  6
CONTINUOUS
 62
     7
 10
-128.7166324436599
 20
13.28336755624696
 30
0.0
 11
-143.5000000001281
 21
-1.500000000221092
 31
0.0
  0
LINE
  5
D4
  8
PATTERN_FILL
  6
CONTINUOUS
 62
     7
 10
-153.5000000001281
 20
-11.500000000221
 30
0.0
 11
-161.30000000012811
 21
-19.300000000220951
 31
0.0
  0
LINE
  5
D5
  8
PATTERN_FILL
  6
CONTINUOUS
 62
     7
 10
-128.19301848062091
 20
11.30698151928598
 30
0.0
 11
-141.0000000001281
 21
-1.500000000221092
 31
0.0
  0
LINE
  5
D6
  8
PATTERN_FILL
  6
CONTINUOUS
 62
     7
 10
-151.0000000001281
 20
-11.500000000221
 30
0.0
 11
-158.80000000012811
 21
-19.300000000220951
 31
0.0
  0
LINE
  5
D7
  8
PATTERN_FILL
  6
CONTINUOUS
 62
     7
 10
-127.6694045175819
 20
9.3305954823249948
 30
0.0
 11
-138.5000000001281
 21
-1.500000000221092
 31
0.0
  0
LINE
  5
D8
  8
PATTERN_FILL
  6
CONTINUOUS
 62
     7
 10
-148.5000000001281
 20
-11.500000000221
 30
0.0
 11
-156.30000000012811
 21
-19.300000000220951
 31
0.0
  0
LINE
  5
D9
  8
PATTERN_FILL
  6
CONTINUOUS
 62
     7
 10
-127.1457905545429
 20
7.3542094453640061
 30
0.0
 11
-136.0000000001281
 21
-1.500000000221092
 31
0.0
  0
LINE
  5
DA
  8
PATTERN_FILL
  6
CONTINUOUS
 62
     7
 10
-146.0000000001281
 20
-11.500000000221
 30
0.0
 11
-153.80000000012811
 21
-19.300000000220951
 31
0.0
  0
LINE
  5
DB
  8
PATTERN_FILL
  6
CONTINUOUS
 62
     7
 10
-126.6221765915039
 20
5.3778234084030307
 30
0.0
 11
-133.5000000001281
 21
-1.500000000221092
 31
0.0
  0
LINE
  5
DC
  8
PATTERN_FILL
  6
CONTINUOUS
 62
     7
 10
-143.5000000001281
 20
-11.500000000221
 30
0.0
 11
-151.30000000012811
 21
-19.300000000220951
 31
0.0
  0
LINE
  5
DD
  8
PATTERN_FILL
  6
CONTINUOUS
 62
     7
 10
-126.0985626284649
 20
3.4014373714420851
 30
0.0
 11
-131.0000000001281
 21
-1.500000000221092
 31
0.0
  0
LINE
  5
DE
  8
PATTERN_FILL
  6
CONTINUOUS
 62
     7
 10
-141.0000000001281
 20
-11.500000000221
 30
0.0
 11
-148.80000000012811
 21
-19.300000000220951
 31
0.0
  0
LINE
  5
DF
  8
PATTERN_FILL
  6
CONTINUOUS
 62
     7
 10
-125.57494866542579
 20
1.4250513344811251
 30
0.0
 11
-128.5000000001281
 21
-1.500000000221092
 31
0.0
  0
LINE
  5
E0
  8
PATTERN_FILL
  6
CONTINUOUS
 62
     7
 10
-138.5000000001281
 20
-11.500000000221
 30
0.0
 11
-146.30000000012811
 21
-19.300000000220951
 31
0.0
  0
LINE
  5
E1
  8
PATTERN_FILL
  6
CONTINUOUS
 62
     7
 10
-125.0513347023868
 20
-0.551334702479835
 30
0.0
 11
-126.0000000001281
 21
-1.500000000221092
 31
0.0
  0
LINE
  5
E2
  8
PATTERN_FILL
  6
CONTINUOUS
 62
     7
 10
-136.0000000001281
 20
-11.500000000221
 30
0.0
 11
-143.80000000012811
 21
-19.300000000220951
 31
0.0
  0
LINE
  5
E3
  8
PATTERN_FILL
  6
CONTINUOUS
 62
     7
 10
-133.5000000001281
 20
-11.500000000221
 30
0.0
 11
-141.30000000012811
 21
-19.300000000220951
 31
0.0
  0
LINE
  5
E4
  8
PATTERN_FILL
  6
CONTINUOUS
 62
     7
 10
-131.0000000001281
 20
-11.500000000221
 30
0.0
 11
-138.80000000012811
 21
-19.300000000220951
 31
0.0
  0
LINE
  5
E5
  8
PATTERN_FILL
  6
CONTINUOUS
 62
     7
 10
-128.5000000001281
 20
-11.500000000221
 30
0.0
 11
-136.30000000012799
 21
-19.300000000220951
 31
0.0
  0
LINE
  5
E6
  8
PATTERN_FILL
  6
CONTINUOUS
 62
     7
 10
-126.54736842118071
 20
-12.04736842127366
 30
0.0
 11
-133.80000000012819
 21
-19.300000000220951
 31
0.0
  0
LINE
  5
E7
  8
PATTERN_FILL
  6
CONTINUOUS
 62
     7
 10
-127.46842105275969
 20
-15.468421052852619
 30
0.0
 11
-131.30000000012819
 21
-19.300000000220951
 31
0.0
  0
LINE
  5
E8
  8
PATTERN_FILL
  6
CONTINUOUS
 62
     7
 10
-128.3894736843387
 20
-18.889473684431529
 30
0.0
 11
-128.80000000012819
 21
-19.300000000220951
 31
0.0
  0
LINE
  5
E9
  8
PATTERN_FILL
  6
CONTINUOUS
 62
     7
 10
-62.000000000183938
 20
36.99999999977868
 30
0.0
 11
-66.081272084989564
 21
32.918727914973012
 31
0.0
  0
LINE
  5
EA
  8
PATTERN_FILL
  6
CONTINUOUS
 62
     7
 10
-59.500000000183938
 20
36.99999999977868
 30
0.0
 11
-66.98233215566097
 21
29.517667844301659
 31
0.0
  0
LINE
  5
EB
  8
PATTERN_FILL
  6
CONTINUOUS
 62
     7
 10
-57.000000000183938
 20
36.99999999977868
 30
0.0
 11
-67.883392226332376
 21
26.116607773630282
 31
0.0
  0
LINE
  5
EC
  8
PATTERN_FILL
  6
CONTINUOUS
 62
     7
 10
-54.500000000183938
 20
36.99999999977868
 30
0.0
 11
-68.784452297003781
 21
22.715547702958961
 31
0.0
  0
LINE
  5
ED
  8
PATTERN_FILL
  6
CONTINUOUS
 62
     7
 10
-52.000000000183938
 20
36.99999999977868
 30
0.0
 11
-69.685512367675187
 21
19.31448763228758
 31
0.0
  0
LINE
  5
EE
  8
PATTERN_FILL
  6
CONTINUOUS
 62
     7
 10
-49.500000000183938
 20
36.99999999977868
 30
0.0
 11
-70.586572438346479
 21
15.91342756161621
 31
0.0
  0
LINE
  5
EF
  8
PATTERN_FILL
  6
CONTINUOUS
 62
     7
 10
-47.000000000183938
 20
36.99999999977868
 30
0.0
 11
-71.487632509017885
 21
12.51236749094485
 31
0.0
  0
LINE
  5
F0
  8
PATTERN_FILL
  6
CONTINUOUS
 62
     7
 10
-44.500000000184052
 20
36.99999999977868
 30
0.0
 11
-72.388692579689291
 21
9.1113074202734872
 31
0.0
  0
LINE
  5
F1
  8
PATTERN_FILL
  6
CONTINUOUS
 62
     7
 10
-42.000000000184052
 20
36.99999999977868
 30
0.0
 11
-73.289752650360683
 21
5.7102473496021551
 31
0.0
  0
LINE
  5
F2
  8
PATTERN_FILL
  6
CONTINUOUS
 62
     7
 10
-39.500000000184052
 20
36.99999999977868
 30
0.0
 11
-74.190812721032003
 21
2.3091872789308199
 31
0.0
  0
LINE
  5
F3
  8
PATTERN_FILL
  6
CONTINUOUS
 62
     7
 10
-37.000000000184052
 20
36.99999999977868
 30
0.0
 11
-75.091872791703381
 21
-1.0918727917405411
 31
0.0
  0
LINE
  5
F4
  8
PATTERN_FILL
  6
CONTINUOUS
 62
     7
 10
-35.01932496883024
 20
36.480675031132463
 30
0.0
 11
-73.000000000183931
 21
-1.500000000221092
 31
0.0
  0
LINE
  5
F5
  8
PATTERN_FILL
  6
CONTINUOUS
 62
     7
 10
-34.371663244537217
 20
34.628336755425472
 30
0.0
 11
-70.500000000183931
 21
-1.500000000221092
 31
0.0
  0
LINE
  5
F6
  8
PATTERN_FILL
  6
CONTINUOUS
 62
     7
 10
-33.84804928149822
 20
32.651950718464491
 30
0.0
 11
-68.000000000183931
 21
-1.500000000221092
 31
0.0
  0
LINE
  5
F7
  8
PATTERN_FILL
  6
CONTINUOUS
 62
     7
 10
-33.324435318459223
 20
30.67556468150352
 30
0.0
 11
-65.500000000183931
 21
-1.500000000221092
 31
0.0
  0
LINE
  5
F8
  8
PATTERN_FILL
  6
CONTINUOUS
 62
     7
 10
-32.800821355420233
 20
28.699178644542521
 30
0.0
 11
-63.000000000183931
 21
-1.50000000022112
 31
0.0
  0
LINE
  5
F9
  8
PATTERN_FILL
  6
CONTINUOUS
 62
     7
 10
-73.000000000183931
 20
-11.500000000221
 30
0.0
 11
-73.472727272911229
 21
-11.972727272948299
 31
0.0
  0
LINE
  5
FA
  8
PATTERN_FILL
  6
CONTINUOUS
 62
     7
 10
-32.250000000184052
 20
26.749999999778709
 30
0.0
 11
-60.500000000183931
 21
-1.50000000022112
 31
0.0
  0
LINE
  5
FB
  8
PATTERN_FILL
  6
CONTINUOUS
 62
     7
 10
-70.500000000183931
 20
-11.500000000221
 30
0.0
 11
-72.942424242608226
 21
-13.94242424264521
 31
0.0
  0
LINE
  5
FC
  8
PATTERN_FILL
  6
CONTINUOUS
 62
     7
 10
-31.753593429342121
 20
24.746406570620589
 30
0.0
 11
-58.000000000183931
 21
-1.50000000022112
 31
0.0
  0
LINE
  5
FD
  8
PATTERN_FILL
  6
CONTINUOUS
 62
     7
 10
-68.000000000183931
 20
-11.500000000221
 30
0.0
 11
-72.412121212305124
 21
-15.91212121234218
 31
0.0
  0
LINE
  5
FE
  8
PATTERN_FILL
  6
CONTINUOUS
 62
     7
 10
-31.229979466303121
 20
22.770020533659611
 30
0.0
 11
-55.500000000183931
 21
-1.500000000221092
 31
0.0
  0
LINE
  5
FF
  8
PATTERN_FILL
  6
CONTINUOUS
 62
     7
 10
-65.500000000183931
 20
-11.500000000221
 30
0.0
 11
-71.881818182002121
 21
-17.881818182039119
 31
0.0
  0
LINE
  5
100
  8
PATTERN_FILL
  6
CONTINUOUS
 62
     7
 10
-30.706365503264131
 20
20.793634496698669
 30
0.0
 11
-53.000000000183931
 21
-1.500000000221092
 31
0.0
  0
LINE
  5
101
  8
PATTERN_FILL
  6
CONTINUOUS
 62
     7
 10
-63.000000000183931
 20
-11.500000000221
 30
0.0
 11
-70.8000000001839
 21
-19.300000000220951
 31
0.0
  0
LINE
  5
102
  8
PATTERN_FILL
  6
CONTINUOUS
 62
     7
 10
-30.18275154022513
 20
18.817248459737691
 30
0.0
 11
-50.500000000183931
 21
-1.500000000221092
 31
0.0
  0
LINE
  5
103
  8
PATTERN_FILL
  6
CONTINUOUS
 62
     7
 10
-60.500000000183931
 20
-11.500000000221
 30
0.0
 11
-68.300000000184028
 21
-19.300000000220951
 31
0.0
  0
LINE
  5
104
  8
PATTERN_FILL
  6
CONTINUOUS
 62
     7
 10
-29.659137577186129
 20
16.840862422776699
 30
0.0
 11
-48.000000000183931
 21
-1.500000000221092
 31
0.0
  0
LINE
  5
105
  8
PATTERN_FILL
  6
CONTINUOUS
 62
     7
 10
-58.000000000183931
 20
-11.500000000221
 30
0.0
 11
-65.8000000001839
 21
-19.300000000220951
 31
0.0
  0
LINE
  5
106
  8
PATTERN_FILL
  6
CONTINUOUS
 62
     7
 10
-29.135523614147019
 20
14.864476385815729
 30
0.0
 11
-45.500000000183931
 21
-1.500000000221092
 31
0.0
  0
LINE
  5
107
  8
PATTERN_FILL
  6
CONTINUOUS
 62
     7
 10
-55.500000000183931
 20
-11.500000000221
 30
0.0
 11
-63.300000000184021
 21
-19.300000000220951
 31
0.0
  0
LINE
  5
108
  8
PATTERN_FILL
  6
CONTINUOUS
 62
     7
 10
-28.611909651108022
 20
12.888090348854769
 30
0.0
 11
-43.000000000184059
 21
-1.500000000221092
 31
0.0
  0
LINE
  5
109
  8
PATTERN_FILL
  6
CONTINUOUS
 62
     7
 10
-53.000000000183931
 20
-11.500000000221
 30
0.0
 11
-60.800000000184021
 21
-19.300000000220951
 31
0.0
  0
LINE
  5
10A
  8
PATTERN_FILL
  6
CONTINUOUS
 62
     7
 10
-28.088295688069032
 20
10.911704311893789
 30
0.0
 11
-40.500000000184052
 21
-1.500000000221092
 31
0.0
  0
LINE
  5
10B
  8
PATTERN_FILL
  6
CONTINUOUS
 62
     7
 10
-50.500000000183931
 20
-11.500000000221
 30
0.0
 11
-58.3000000001839
 21
-19.300000000220951
 31
0.0
  0
LINE
  5
10C
  8
PATTERN_FILL
  6
CONTINUOUS
 62
     7
 10
-27.564681725030031
 20
8.9353182749327846
 30
0.0
 11
-38.000000000184052
 21
-1.500000000221092
 31
0.0
  0
LINE
  5
10D
  8
PATTERN_FILL
  6
CONTINUOUS
 62
     7
 10
-48.000000000183931
 20
-11.500000000221
 30
0.0
 11
-55.800000000184021
 21
-19.300000000220951
 31
0.0
  0
LINE
  5
10E
  8
PATTERN_FILL
  6
CONTINUOUS
 62
     7
 10
-27.041067761991041
 20
6.9589322379718226
 30
0.0
 11
-35.500000000184052
 21
-1.500000000221092
 31
0.0
  0
LINE
  5
10F
  8
PATTERN_FILL
  6
CONTINUOUS
 62
     7
 10
-45.500000000183931
 20
-11.500000000221
 30
0.0
 11
-53.300000000184021
 21
-19.300000000220951
 31
0.0
  0
LINE
  5
110
  8
PATTERN_FILL
  6
CONTINUOUS
 62
     7
 10
-26.51745379895204
 20
4.9825462010108756
 30
0.0
 11
-33.000000000184052
 21
-1.500000000221092
 31
0.0
  0
LINE
  5
111
  8
PATTERN_FILL
  6
CONTINUOUS
 62
     7
 10
-43.000000000184059
 20
-11.500000000221
 30
0.0
 11
-50.800000000184021
 21
-19.300000000220951
 31
0.0
  0
LINE
  5
112
  8
PATTERN_FILL
  6
CONTINUOUS
 62
     7
 10
-25.99383983591304
 20
3.0061601640498732
 30
0.0
 11
-30.500000000184048
 21
-1.500000000221092
 31
0.0
  0
LINE
  5
113
  8
PATTERN_FILL
  6
CONTINUOUS
 62
     7
 10
-40.500000000184052
 20
-11.500000000221
 30
0.0
 11
-48.300000000184021
 21
-19.300000000220951
 31
0.0
  0
LINE
  5
114
  8
PATTERN_FILL
  6
CONTINUOUS
 62
     7
 10
-25.470225872873929
 20
1.0297741270889269
 30
0.0
 11
-28.000000000184048
 21
-1.500000000221092
 31
0.0
  0
LINE
  5
115
  8
PATTERN_FILL
  6
CONTINUOUS
 62
     7
 10
-38.000000000184052
 20
-11.500000000221
 30
0.0
 11
-45.800000000184021
 21
-19.300000000220951
 31
0.0
  0
LINE
  5
116
  8
PATTERN_FILL
  6
CONTINUOUS
 62
     7
 10
-24.946611909834932
 20
-0.9466119098720183
 30
0.0
 11
-25.500000000184048
 21
-1.500000000221092
 31
0.0
  0
LINE
  5
117
  8
PATTERN_FILL
  6
CONTINUOUS
 62
     7
 10
-35.500000000184052
 20
-11.500000000221
 30
0.0
 11
-43.300000000184014
 21
-19.300000000220951
 31
0.0
  0
LINE
  5
118
  8
PATTERN_FILL
  6
CONTINUOUS
 62
     7
 10
-33.000000000184052
 20
-11.500000000221
 30
0.0
 11
-40.800000000184014
 21
-19.300000000220951
 31
0.0
  0
LINE
  5
119
  8
PATTERN_FILL
  6
CONTINUOUS
 62
     7
 10
-30.500000000184048
 20
-11.500000000221
 30
0.0
 11
-38.300000000184014
 21
-19.300000000220951
 31
0.0
  0
LINE
  5
11A
  8
PATTERN_FILL
  6
CONTINUOUS
 62
     7
 10
-28.000000000184048
 20
-11.500000000221
 30
0.0
 11
-35.800000000184014
 21
-19.300000000220951
 31
0.0
  0
LINE
  5
11B
  8
PATTERN_FILL
  6
CONTINUOUS
 62
     7
 10
-26.731578947552411
 20
-12.73157894758941
 30
0.0
 11
-33.300000000184014
 21
-19.300000000220951
 31
0.0
  0
LINE
  5
11C
  8
PATTERN_FILL
  6
CONTINUOUS
 62
     7
 10
-27.65263157913137
 20
-16.152631579168311
 30
0.0
 11
-30.80000000018401
 21
-19.300000000220951
 31
0.0
  0
LINE
  5
11D
  8
PATTERN_FILL
  6
CONTINUOUS
 62
     7
 10
-37.500000000184052
 20
36.99999999977868
 30
0.0
 11
-34.098939929512653
 21
33.598939929107303
 31
0.0
  0
LINE
  5
11E
  8
PATTERN_FILL
  6
CONTINUOUS
 62
     7
 10
-40.000000000184052
 20
36.99999999977868
 30
0.0
 11
-33.197879858841262
 21
30.19787985843589
 31
0.0
  0
LINE
  5
11F
  8
PATTERN_FILL
  6
CONTINUOUS
 62
     7
 10
-42.500000000184052
 20
36.99999999977868
 30
0.0
 11
-32.250000000184052
 21
26.749999999778709
 31
0.0
  0
LINE
  5
120
  8
PATTERN_FILL
  6
CONTINUOUS
 62
     7
 10
-45.000000000184052
 20
36.99999999977868
 30
0.0
 11
-31.395759717498549
 21
23.395759717093231
 31
0.0
  0
LINE
  5
121
  8
PATTERN_FILL
  6
CONTINUOUS
 62
     7
 10
-47.500000000183938
 20
36.99999999977868
 30
0.0
 11
-30.49469964682714
 21
19.99469964642185
 31
0.0
  0
LINE
  5
122
  8
PATTERN_FILL
  6
CONTINUOUS
 62
     7
 10
-50.000000000183938
 20
36.99999999977868
 30
0.0
 11
-29.593639576155741
 21
16.593639575750512
 31
0.0
  0
LINE
  5
123
  8
PATTERN_FILL
  6
CONTINUOUS
 62
     7
 10
-52.500000000183938
 20
36.99999999977868
 30
0.0
 11
-28.692579505484449
 21
13.19257950507915
 31
0.0
  0
LINE
  5
124
  8
PATTERN_FILL
  6
CONTINUOUS
 62
     7
 10
-55.000000000183938
 20
36.99999999977868
 30
0.0
 11
-27.79151943481304
 21
9.7915194344077605
 31
0.0
  0
LINE
  5
125
  8
PATTERN_FILL
  6
CONTINUOUS
 62
     7
 10
-57.500000000183938
 20
36.99999999977868
 30
0.0
 11
-26.890459364141641
 21
6.3904593637363956
 31
0.0
  0
LINE
  5
126
  8
PATTERN_FILL
  6
CONTINUOUS
 62
     7
 10
-60.000000000183938
 20
36.99999999977868
 30
0.0
 11
-25.989399293470228
 21
2.9893992930650191
 31
0.0
  0
LINE
  5
127
  8
PATTERN_FILL
  6
CONTINUOUS
 62
     7
 10
-62.500000000183938
 20
36.99999999977868
 30
0.0
 11
-25.088339222798929
 21
-0.4116607776062722
 31
0.0
  0
LINE
  5
128
  8
PATTERN_FILL
  6
CONTINUOUS
 62
     7
 10
-64.719311299250762
 20
36.719311298845412
 30
0.0
 11
-26.500000000184059
 21
-1.500000000221092
 31
0.0
  0
LINE
  5
129
  8
PATTERN_FILL
  6
CONTINUOUS
 62
     7
 10
-65.523613963222928
 20
35.023613962817677
 30
0.0
 11
-29.000000000184059
 21
-1.500000000221092
 31
0.0
  0
LINE
  5
12A
  8
PATTERN_FILL
  6
CONTINUOUS
 62
     7
 10
-66.04722792626194
 20
33.047227925856681
 30
0.0
 11
-31.500000000184059
 21
-1.500000000221092
 31
0.0
  0
LINE
  5
12B
  8
PATTERN_FILL
  6
CONTINUOUS
 62
     7
 10
-66.570841889301036
 20
31.070841888895728
 30
0.0
 11
-34.000000000184052
 21
-1.500000000221092
 31
0.0
  0
LINE
  5
12C
  8
PATTERN_FILL
  6
CONTINUOUS
 62
     7
 10
-67.094455852340033
 20
29.094455851934729
 30
0.0
 11
-36.500000000184052
 21
-1.500000000221092
 31
0.0
  0
LINE
  5
12D
  8
PATTERN_FILL
  6
CONTINUOUS
 62
     7
 10
-26.500000000184059
 20
-11.500000000221
 30
0.0
 11
-26.421212121396142
 21
-11.57878787900893
 31
0.0
  0
LINE
  5
12E
  8
PATTERN_FILL
  6
CONTINUOUS
 62
     7
 10
-67.618069815379044
 20
27.118069814973751
 30
0.0
 11
-39.000000000184052
 21
-1.500000000221092
 31
0.0
  0
LINE
  5
12F
  8
PATTERN_FILL
  6
CONTINUOUS
 62
     7
 10
-29.000000000184059
 20
-11.500000000221
 30
0.0
 11
-26.951515151699141
 21
-13.54848484870584
 31
0.0
  0
LINE
  5
130
  8
PATTERN_FILL
  6
CONTINUOUS
 62
     7
 10
-68.141683778418042
 20
25.141683778012752
 30
0.0
 11
-41.500000000184052
 21
-1.500000000221092
 31
0.0
  0
LINE
  5
131
  8
PATTERN_FILL
  6
CONTINUOUS
 62
     7
 10
-31.500000000184059
 20
-11.500000000221
 30
0.0
 11
-27.481818182002261
 21
-15.51818181840283
 31
0.0
  0
LINE
  5
132
  8
PATTERN_FILL
  6
CONTINUOUS
 62
     7
 10
-68.665297741457024
 20
23.16529774105183
 30
0.0
 11
-44.000000000184059
 21
-1.500000000221092
 31
0.0
  0
LINE
  5
133
  8
PATTERN_FILL
  6
CONTINUOUS
 62
     7
 10
-34.000000000184052
 20
-11.500000000221
 30
0.0
 11
-28.01212121230526
 21
-17.487878788099749
 31
0.0
  0
LINE
  5
134
  8
PATTERN_FILL
  6
CONTINUOUS
 62
     7
 10
-69.188911704496036
 20
21.188911704090831
 30
0.0
 11
-46.500000000183931
 21
-1.500000000221092
 31
0.0
  0
LINE
  5
135
  8
PATTERN_FILL
  6
CONTINUOUS
 62
     7
 10
-36.500000000184052
 20
-11.500000000221
 30
0.0
 11
-28.700000000184112
 21
-19.300000000220951
 31
0.0
  0
LINE
  5
136
  8
PATTERN_FILL
  6
CONTINUOUS
 62
     7
 10
-69.712525667535147
 20
19.212525667129881
 30
0.0
 11
-49.000000000183938
 21
-1.50000000022112
 31
0.0
  0
LINE
  5
137
  8
PATTERN_FILL
  6
CONTINUOUS
 62
     7
 10
-39.000000000184052
 20
-11.500000000221
 30
0.0
 11
-31.200000000184112
 21
-19.300000000220951
 31
0.0
  0
LINE
  5
138
  8
PATTERN_FILL
  6
CONTINUOUS
 62
     7
 10
-70.236139630574144
 20
17.236139630168889
 30
0.0
 11
-51.500000000183938
 21
-1.500000000221092
 31
0.0
  0
LINE
  5
139
  8
PATTERN_FILL
  6
CONTINUOUS
 62
     7
 10
-41.500000000184052
 20
-11.500000000221
 30
0.0
 11
-33.700000000183991
 21
-19.300000000220951
 31
0.0
  0
LINE
  5
13A
  8
PATTERN_FILL
  6
CONTINUOUS
 62
     7
 10
-70.759753593613141
 20
15.259753593207909
 30
0.0
 11
-54.000000000183938
 21
-1.500000000221092
 31
0.0
  0
LINE
  5
13B
  8
PATTERN_FILL
  6
CONTINUOUS
 62
     7
 10
-44.000000000184059
 20
-11.500000000221
 30
0.0
 11
-36.200000000183991
 21
-19.300000000220951
 31
0.0
  0
LINE
  5
13C
  8
PATTERN_FILL
  6
CONTINUOUS
 62
     7
 10
-71.283367556652152
 20
13.28336755624696
 30
0.0
 11
-56.500000000183938
 21
-1.500000000221092
 31
0.0
  0
LINE
  5
13D
  8
PATTERN_FILL
  6
CONTINUOUS
 62
     7
 10
-46.500000000183931
 20
-11.500000000221
 30
0.0
 11
-38.700000000183991
 21
-19.300000000220951
 31
0.0
  0
LINE
  5
13E
  8
PATTERN_FILL
  6
CONTINUOUS
 62
     7
 10
-71.806981519691149
 20
11.30698151928598
 30
0.0
 11
-59.000000000183938
 21
-1.500000000221092
 31
0.0
  0
LINE
  5
13F
  8
PATTERN_FILL
  6
CONTINUOUS
 62
     7
 10
-49.000000000183938
 20
-11.500000000221
 30
0.0
 11
-41.200000000183991
 21
-19.300000000220951
 31
0.0
  0
LINE
  5
140
  8
PATTERN_FILL
  6
CONTINUOUS
 62
     7
 10
-72.330595482730232
 20
9.3305954823249948
 30
0.0
 11
-61.500000000183832
 21
-1.500000000221092
 31
0.0
  0
LINE
  5
141
  8
PATTERN_FILL
  6
CONTINUOUS
 62
     7
 10
-51.500000000183938
 20
-11.500000000221
 30
0.0
 11
-43.700000000183991
 21
-19.300000000220951
 31
0.0
  0
LINE
  5
142
  8
PATTERN_FILL
  6
CONTINUOUS
 62
     7
 10
-72.854209445769257
 20
7.3542094453640061
 30
0.0
 11
-64.000000000183931
 21
-1.500000000221092
 31
0.0
  0
LINE
  5
143
  8
PATTERN_FILL
  6
CONTINUOUS
 62
     7
 10
-54.000000000183938
 20
-11.500000000221
 30
0.0
 11
-46.200000000183991
 21
-19.300000000220951
 31
0.0
  0
LINE
  5
144
  8
PATTERN_FILL
  6
CONTINUOUS
 62
     7
 10
-73.377823408808226
 20
5.3778234084030307
 30
0.0
 11
-66.500000000183931
 21
-1.500000000221092
 31
0.0
  0
LINE
  5
145
  8
PATTERN_FILL
  6
CONTINUOUS
 62
     7
 10
-56.500000000183938
 20
-11.500000000221
 30
0.0
 11
-48.700000000183991
 21
-19.300000000220951
 31
0.0
  0
LINE
  5
146
  8
PATTERN_FILL
  6
CONTINUOUS
 62
     7
 10
-73.901437371847237
 20
3.4014373714420851
 30
0.0
 11
-69.000000000183931
 21
-1.500000000221092
 31
0.0
  0
LINE
  5
147
  8
PATTERN_FILL
  6
CONTINUOUS
 62
     7
 10
-59.000000000183938
 20
-11.500000000221
 30
0.0
 11
-51.200000000183991
 21
-19.300000000220951
 31
0.0
  0
LINE
  5
148
  8
PATTERN_FILL
  6
CONTINUOUS
 62
     7
 10
-74.42505133488622
 20
1.4250513344811251
 30
0.0
 11
-71.500000000183931
 21
-1.500000000221092
 31
0.0
  0
LINE
  5
149
  8
PATTERN_FILL
  6
CONTINUOUS
 62
     7
 10
-61.500000000183832
 20
-11.500000000221
 30
0.0
 11
-53.700000000183991
 21
-19.300000000220951
 31
0.0
  0
LINE
  5
14A
  8
PATTERN_FILL
  6
CONTINUOUS
 62
     7
 10
-74.948665297925231
 20
-0.551334702479835
 30
0.0
 11
-74.000000000183931
 21
-1.500000000221092
 31
0.0
  0
LINE
  5
14B
  8
PATTERN_FILL
  6
CONTINUOUS
 62
     7
 10
-64.000000000183931
 20
-11.500000000221
 30
0.0
 11
-56.200000000183991
 21
-19.300000000220951
 31
0.0
  0
LINE
  5
14C
  8
PATTERN_FILL
  6
CONTINUOUS
 62
     7
 10
-66.500000000183931
 20
-11.500000000221
 30
0.0
 11
-58.700000000183991
 21
-19.300000000220951
 31
0.0
  0
LINE
  5
14D
  8
PATTERN_FILL
  6
CONTINUOUS
 62
     7
 10
-69.000000000183931
 20
-11.500000000221
 30
0.0
 11
-61.200000000183991
 21
-19.300000000220951
 31
0.0
  0
LINE
  5
14E
  8
PATTERN_FILL
  6
CONTINUOUS
 62
     7
 10
-71.500000000183931
 20
-11.500000000221
 30
0.0
 11
-63.700000000183991
 21
-19.300000000220951
 31
0.0
  0
LINE
  5
14F
  8
PATTERN_FILL
  6
CONTINUOUS
 62
     7
 10
-73.452631579131321
 20
-12.04736842127366
 30
0.0
 11
-66.200000000183991
 21
-19.300000000220951
 31
0.0
  0
LINE
  5
150
  8
PATTERN_FILL
  6
CONTINUOUS
 62
     7
 10
-72.531578947552347
 20
-15.468421052852619
 30
0.0
 11
-68.700000000183991
 21
-19.300000000220951
 31
0.0
  0
LINE
  5
151
  8
PATTERN_FILL
  6
CONTINUOUS
 62
     7
 10
-71.610526315973402
 20
-18.889473684431529
 30
0.0
 11
-71.200000000183977
 21
-19.300000000220951
 31
0.0
  0
LINE
  5
152
  8
PATTERN_FILL
  6
CONTINUOUS
 62
     7
 10
62.000000000026382
 20
36.99999999977868
 30
0.0
 11
66.081272084831994
 21
32.918727914973012
 31
0.0
  0
LINE
  5
153
  8
PATTERN_FILL
  6
CONTINUOUS
 62
     7
 10
59.500000000026489
 20
36.99999999977868
 30
0.0
 11
66.9823321555034
 21
29.517667844301659
 31
0.0
  0
LINE
  5
154
  8
PATTERN_FILL
  6
CONTINUOUS
 62
     7
 10
57.000000000026489
 20
36.99999999977868
 30
0.0
 11
67.883392226174806
 21
26.116607773630282
 31
0.0
  0
LINE
  5
155
  8
PATTERN_FILL
  6
CONTINUOUS
 62
     7
 10
54.500000000026489
 20
36.99999999977868
 30
0.0
 11
68.784452296846098
 21
22.715547702958961
 31
0.0
  0
LINE
  5
156
  8
PATTERN_FILL
  6
CONTINUOUS
 62
     7
 10
52.000000000026489
 20
36.99999999977868
 30
0.0
 11
69.685512367517603
 21
19.31448763228758
 31
0.0
  0
LINE
  5
157
  8
PATTERN_FILL
  6
CONTINUOUS
 62
     7
 10
49.500000000026603
 20
36.99999999977868
 30
0.0
 11
70.586572438188909
 21
15.91342756161621
 31
0.0
  0
LINE
  5
158
  8
PATTERN_FILL
  6
CONTINUOUS
 62
     7
 10
47.000000000026489
 20
36.99999999977868
 30
0.0
 11
71.487632508860315
 21
12.51236749094485
 31
0.0
  0
LINE
  5
159
  8
PATTERN_FILL
  6
CONTINUOUS
 62
     7
 10
44.500000000026489
 20
36.99999999977868
 30
0.0
 11
72.388692579531707
 21
9.1113074202734872
 31
0.0
  0
LINE
  5
15A
  8
PATTERN_FILL
  6
CONTINUOUS
 62
     7
 10
42.000000000026489
 20
36.99999999977868
 30
0.0
 11
73.289752650203127
 21
5.7102473496021551
 31
0.0
  0
LINE
  5
15B
  8
PATTERN_FILL
  6
CONTINUOUS
 62
     7
 10
39.500000000026382
 20
36.99999999977868
 30
0.0
 11
74.190812720874533
 21
2.3091872789308199
 31
0.0
  0
LINE
  5
15C
  8
PATTERN_FILL
  6
CONTINUOUS
 62
     7
 10
37.000000000026503
 20
36.99999999977868
 30
0.0
 11
75.091872791545711
 21
-1.0918727917405411
 31
0.0
  0
LINE
  5
15D
  8
PATTERN_FILL
  6
CONTINUOUS
 62
     7
 10
35.01932496867277
 20
36.480675031132463
 30
0.0
 11
73.000000000026375
 21
-1.500000000221092
 31
0.0
  0
LINE
  5
15E
  8
PATTERN_FILL
  6
CONTINUOUS
 62
     7
 10
34.371663244379647
 20
34.628336755425472
 30
0.0
 11
70.500000000026375
 21
-1.500000000221092
 31
0.0
  0
LINE
  5
15F
  8
PATTERN_FILL
  6
CONTINUOUS
 62
     7
 10
33.84804928134065
 20
32.651950718464491
 30
0.0
 11
68.000000000026375
 21
-1.500000000221092
 31
0.0
  0
LINE
  5
160
  8
PATTERN_FILL
  6
CONTINUOUS
 62
     7
 10
33.324435318301653
 20
30.67556468150352
 30
0.0
 11
65.500000000026489
 21
-1.500000000221092
 31
0.0
  0
LINE
  5
161
  8
PATTERN_FILL
  6
CONTINUOUS
 62
     7
 10
32.800821355262663
 20
28.699178644542521
 30
0.0
 11
63.000000000026368
 21
-1.50000000022112
 31
0.0
  0
LINE
  5
162
  8
PATTERN_FILL
  6
CONTINUOUS
 62
     7
 10
73.000000000026375
 20
-11.500000000221
 30
0.0
 11
73.472727272753659
 21
-11.972727272948299
 31
0.0
  0
LINE
  5
163
  8
PATTERN_FILL
  6
CONTINUOUS
 62
     7
 10
32.250000000026489
 20
26.749999999778709
 30
0.0
 11
60.500000000026503
 21
-1.50000000022112
 31
0.0
  0
LINE
  5
164
  8
PATTERN_FILL
  6
CONTINUOUS
 62
     7
 10
70.500000000026375
 20
-11.500000000221
 30
0.0
 11
72.94242424245067
 21
-13.94242424264521
 31
0.0
  0
LINE
  5
165
  8
PATTERN_FILL
  6
CONTINUOUS
 62
     7
 10
31.753593429184669
 20
24.746406570620589
 30
0.0
 11
58.000000000026503
 21
-1.50000000022112
 31
0.0
  0
LINE
  5
166
  8
PATTERN_FILL
  6
CONTINUOUS
 62
     7
 10
68.000000000026375
 20
-11.500000000221
 30
0.0
 11
72.412121212147554
 21
-15.91212121234218
 31
0.0
  0
LINE
  5
167
  8
PATTERN_FILL
  6
CONTINUOUS
 62
     7
 10
31.229979466145551
 20
22.770020533659611
 30
0.0
 11
55.500000000026503
 21
-1.500000000221092
 31
0.0
  0
LINE
  5
168
  8
PATTERN_FILL
  6
CONTINUOUS
 62
     7
 10
65.500000000026489
 20
-11.500000000221
 30
0.0
 11
71.881818181844551
 21
-17.881818182039119
 31
0.0
  0
LINE
  5
169
  8
PATTERN_FILL
  6
CONTINUOUS
 62
     7
 10
30.706365503106561
 20
20.793634496698669
 30
0.0
 11
53.000000000026503
 21
-1.500000000221092
 31
0.0
  0
LINE
  5
16A
  8
PATTERN_FILL
  6
CONTINUOUS
 62
     7
 10
63.000000000026368
 20
-11.500000000221
 30
0.0
 11
70.800000000026444
 21
-19.300000000220951
 31
0.0
  0
LINE
  5
16B
  8
PATTERN_FILL
  6
CONTINUOUS
 62
     7
 10
30.18275154006756
 20
18.817248459737691
 30
0.0
 11
50.500000000026589
 21
-1.500000000221092
 31
0.0
  0
LINE
  5
16C
  8
PATTERN_FILL
  6
CONTINUOUS
 62
     7
 10
60.500000000026503
 20
-11.500000000221
 30
0.0
 11
68.300000000026444
 21
-19.300000000220951
 31
0.0
  0
LINE
  5
16D
  8
PATTERN_FILL
  6
CONTINUOUS
 62
     7
 10
29.659137577028559
 20
16.840862422776699
 30
0.0
 11
48.000000000026503
 21
-1.500000000221092
 31
0.0
  0
LINE
  5
16E
  8
PATTERN_FILL
  6
CONTINUOUS
 62
     7
 10
58.000000000026503
 20
-11.500000000221
 30
0.0
 11
65.800000000026444
 21
-19.300000000220951
 31
0.0
  0
LINE
  5
16F
  8
PATTERN_FILL
  6
CONTINUOUS
 62
     7
 10
29.135523613989449
 20
14.864476385815729
 30
0.0
 11
45.500000000026503
 21
-1.500000000221092
 31
0.0
  0
LINE
  5
170
  8
PATTERN_FILL
  6
CONTINUOUS
 62
     7
 10
55.500000000026503
 20
-11.500000000221
 30
0.0
 11
63.300000000026451
 21
-19.300000000220951
 31
0.0
  0
LINE
  5
171
  8
PATTERN_FILL
  6
CONTINUOUS
 62
     7
 10
28.611909650950452
 20
12.888090348854769
 30
0.0
 11
43.000000000026503
 21
-1.500000000221092
 31
0.0
  0
LINE
  5
172
  8
PATTERN_FILL
  6
CONTINUOUS
 62
     7
 10
53.000000000026503
 20
-11.500000000221
 30
0.0
 11
60.80000000002655
 21
-19.300000000220951
 31
0.0
  0
LINE
  5
173
  8
PATTERN_FILL
  6
CONTINUOUS
 62
     7
 10
28.088295687911451
 20
10.911704311893789
 30
0.0
 11
40.500000000026503
 21
-1.500000000221092
 31
0.0
  0
LINE
  5
174
  8
PATTERN_FILL
  6
CONTINUOUS
 62
     7
 10
50.500000000026589
 20
-11.500000000221
 30
0.0
 11
58.300000000026451
 21
-19.300000000220951
 31
0.0
  0
LINE
  5
175
  8
PATTERN_FILL
  6
CONTINUOUS
 62
     7
 10
27.56468172487245
 20
8.9353182749327846
 30
0.0
 11
38.000000000026503
 21
-1.500000000221092
 31
0.0
  0
LINE
  5
176
  8
PATTERN_FILL
  6
CONTINUOUS
 62
     7
 10
48.000000000026503
 20
-11.500000000221
 30
0.0
 11
55.800000000026451
 21
-19.300000000220951
 31
0.0
  0
LINE
  5
177
  8
PATTERN_FILL
  6
CONTINUOUS
 62
     7
 10
27.04106776183346
 20
6.9589322379718226
 30
0.0
 11
35.500000000026503
 21
-1.500000000221092
 31
0.0
  0
LINE
  5
178
  8
PATTERN_FILL
  6
CONTINUOUS
 62
     7
 10
45.500000000026503
 20
-11.500000000221
 30
0.0
 11
53.300000000026451
 21
-19.300000000220951
 31
0.0
  0
LINE
  5
179
  8
PATTERN_FILL
  6
CONTINUOUS
 62
     7
 10
26.51745379879447
 20
4.9825462010108756
 30
0.0
 11
33.000000000026489
 21
-1.500000000221092
 31
0.0
  0
LINE
  5
17A
  8
PATTERN_FILL
  6
CONTINUOUS
 62
     7
 10
43.000000000026503
 20
-11.500000000221
 30
0.0
 11
50.80000000002655
 21
-19.300000000220951
 31
0.0
  0
LINE
  5
17B
  8
PATTERN_FILL
  6
CONTINUOUS
 62
     7
 10
25.993839835755349
 20
3.0061601640498732
 30
0.0
 11
30.500000000026489
 21
-1.500000000221092
 31
0.0
  0
LINE
  5
17C
  8
PATTERN_FILL
  6
CONTINUOUS
 62
     7
 10
40.500000000026503
 20
-11.500000000221
 30
0.0
 11
48.30000000002655
 21
-19.300000000220951
 31
0.0
  0
LINE
  5
17D
  8
PATTERN_FILL
  6
CONTINUOUS
 62
     7
 10
25.470225872716231
 20
1.0297741270889269
 30
0.0
 11
28.000000000026489
 21
-1.500000000221092
 31
0.0
  0
LINE
  5
17E
  8
PATTERN_FILL
  6
CONTINUOUS
 62
     7
 10
38.000000000026503
 20
-11.500000000221
 30
0.0
 11
45.80000000002655
 21
-19.300000000220951
 31
0.0
  0
LINE
  5
17F
  8
PATTERN_FILL
  6
CONTINUOUS
 62
     7
 10
24.946611909677252
 20
-0.9466119098720183
 30
0.0
 11
25.500000000026489
 21
-1.500000000221092
 31
0.0
  0
LINE
  5
180
  8
PATTERN_FILL
  6
CONTINUOUS
 62
     7
 10
35.500000000026503
 20
-11.500000000221
 30
0.0
 11
43.300000000026451
 21
-19.300000000220951
 31
0.0
  0
LINE
  5
181
  8
PATTERN_FILL
  6
CONTINUOUS
 62
     7
 10
33.000000000026489
 20
-11.500000000221
 30
0.0
 11
40.800000000026451
 21
-19.300000000220951
 31
0.0
  0
LINE
  5
182
  8
PATTERN_FILL
  6
CONTINUOUS
 62
     7
 10
30.500000000026489
 20
-11.500000000221
 30
0.0
 11
38.300000000026571
 21
-19.300000000220951
 31
0.0
  0
LINE
  5
183
  8
PATTERN_FILL
  6
CONTINUOUS
 62
     7
 10
28.000000000026489
 20
-11.500000000221
 30
0.0
 11
35.800000000026571
 21
-19.300000000220951
 31
0.0
  0
LINE
  5
184
  8
PATTERN_FILL
  6
CONTINUOUS
 62
     7
 10
26.731578947394841
 20
-12.73157894758941
 30
0.0
 11
33.300000000026451
 21
-19.300000000220951
 31
0.0
  0
LINE
  5
185
  8
PATTERN_FILL
  6
CONTINUOUS
 62
     7
 10
27.6526315789738
 20
-16.152631579168311
 30
0.0
 11
30.800000000026451
 21
-19.300000000220951
 31
0.0
  0
LINE
  5
186
  8
PATTERN_FILL
  6
CONTINUOUS
 62
     7
 10
37.500000000026503
 20
36.99999999977868
 30
0.0
 11
34.098939929355197
 21
33.598939929107303
 31
0.0
  0
LINE
  5
187
  8
PATTERN_FILL
  6
CONTINUOUS
 62
     7
 10
40.000000000026489
 20
36.99999999977868
 30
0.0
 11
33.197879858683677
 21
30.19787985843589
 31
0.0
  0
LINE
  5
188
  8
PATTERN_FILL
  6
CONTINUOUS
 62
     7
 10
42.500000000026489
 20
36.99999999977868
 30
0.0
 11
32.250000000026489
 21
26.749999999778709
 31
0.0
  0
LINE
  5
189
  8
PATTERN_FILL
  6
CONTINUOUS
 62
     7
 10
45.000000000026489
 20
36.99999999977868
 30
0.0
 11
31.395759717340979
 21
23.395759717093231
 31
0.0
  0
LINE
  5
18A
  8
PATTERN_FILL
  6
CONTINUOUS
 62
     7
 10
47.500000000026489
 20
36.99999999977868
 30
0.0
 11
30.49469964666957
 21
19.99469964642185
 31
0.0
  0
LINE
  5
18B
  8
PATTERN_FILL
  6
CONTINUOUS
 62
     7
 10
50.000000000026503
 20
36.99999999977868
 30
0.0
 11
29.593639575998171
 21
16.593639575750512
 31
0.0
  0
LINE
  5
18C
  8
PATTERN_FILL
  6
CONTINUOUS
 62
     7
 10
52.500000000026503
 20
36.99999999977868
 30
0.0
 11
28.692579505326758
 21
13.19257950507915
 31
0.0
  0
LINE
  5
18D
  8
PATTERN_FILL
  6
CONTINUOUS
 62
     7
 10
55.000000000026503
 20
36.99999999977868
 30
0.0
 11
27.79151943465547
 21
9.7915194344077605
 31
0.0
  0
LINE
  5
18E
  8
PATTERN_FILL
  6
CONTINUOUS
 62
     7
 10
57.500000000026503
 20
36.99999999977868
 30
0.0
 11
26.890459363984061
 21
6.3904593637363956
 31
0.0
  0
LINE
  5
18F
  8
PATTERN_FILL
  6
CONTINUOUS
 62
     7
 10
60.000000000026503
 20
36.99999999977868
 30
0.0
 11
25.989399293312658
 21
2.9893992930650191
 31
0.0
  0
LINE
  5
190
  8
PATTERN_FILL
  6
CONTINUOUS
 62
     7
 10
62.500000000026368
 20
36.99999999977868
 30
0.0
 11
25.088339222641139
 21
-0.4116607776062722
 31
0.0
  0
LINE
  5
191
  8
PATTERN_FILL
  6
CONTINUOUS
 62
     7
 10
64.719311299093192
 20
36.719311298845412
 30
0.0
 11
26.500000000026489
 21
-1.500000000221092
 31
0.0
  0
LINE
  5
192
  8
PATTERN_FILL
  6
CONTINUOUS
 62
     7
 10
65.523613963065486
 20
35.023613962817677
 30
0.0
 11
29.000000000026489
 21
-1.500000000221092
 31
0.0
  0
LINE
  5
193
  8
PATTERN_FILL
  6
CONTINUOUS
 62
     7
 10
66.047227926104483
 20
33.047227925856681
 30
0.0
 11
31.500000000026489
 21
-1.500000000221092
 31
0.0
  0
LINE
  5
194
  8
PATTERN_FILL
  6
CONTINUOUS
 62
     7
 10
66.57084188914348
 20
31.070841888895728
 30
0.0
 11
34.000000000026489
 21
-1.500000000221092
 31
0.0
  0
LINE
  5
195
  8
PATTERN_FILL
  6
CONTINUOUS
 62
     7
 10
67.094455852182364
 20
29.094455851934729
 30
0.0
 11
36.500000000026503
 21
-1.500000000221092
 31
0.0
  0
LINE
  5
196
  8
PATTERN_FILL
  6
CONTINUOUS
 62
     7
 10
67.618069815221475
 20
27.118069814973751
 30
0.0
 11
39.000000000026382
 21
-1.500000000221092
 31
0.0
  0
LINE
  5
197
  8
PATTERN_FILL
  6
CONTINUOUS
 62
     7
 10
29.000000000026489
 20
-11.500000000221
 30
0.0
 11
26.951515151541571
 21
-13.54848484870584
 31
0.0
  0
LINE
  5
198
  8
PATTERN_FILL
  6
CONTINUOUS
 62
     7
 10
68.141683778260472
 20
25.141683778012752
 30
0.0
 11
41.500000000026489
 21
-1.500000000221092
 31
0.0
  0
LINE
  5
199
  8
PATTERN_FILL
  6
CONTINUOUS
 62
     7
 10
31.500000000026489
 20
-11.500000000221
 30
0.0
 11
27.48181818184457
 21
-15.51818181840283
 31
0.0
  0
LINE
  5
19A
  8
PATTERN_FILL
  6
CONTINUOUS
 62
     7
 10
68.665297741299455
 20
23.16529774105183
 30
0.0
 11
44.000000000026489
 21
-1.500000000221092
 31
0.0
  0
LINE
  5
19B
  8
PATTERN_FILL
  6
CONTINUOUS
 62
     7
 10
34.000000000026489
 20
-11.500000000221
 30
0.0
 11
28.01212121214769
 21
-17.487878788099749
 31
0.0
  0
LINE
  5
19C
  8
PATTERN_FILL
  6
CONTINUOUS
 62
     7
 10
69.188911704338466
 20
21.188911704090831
 30
0.0
 11
46.500000000026489
 21
-1.500000000221092
 31
0.0
  0
LINE
  5
19D
  8
PATTERN_FILL
  6
CONTINUOUS
 62
     7
 10
36.500000000026503
 20
-11.500000000221
 30
0.0
 11
28.700000000026531
 21
-19.300000000220951
 31
0.0
  0
LINE
  5
19E
  8
PATTERN_FILL
  6
CONTINUOUS
 62
     7
 10
69.712525667377463
 20
19.212525667129881
 30
0.0
 11
49.000000000026489
 21
-1.50000000022112
 31
0.0
  0
LINE
  5
19F
  8
PATTERN_FILL
  6
CONTINUOUS
 62
     7
 10
39.000000000026382
 20
-11.500000000221
 30
0.0
 11
31.200000000026531
 21
-19.300000000220951
 31
0.0
  0
LINE
  5
1A0
  8
PATTERN_FILL
  6
CONTINUOUS
 62
     7
 10
70.23613963041646
 20
17.236139630168889
 30
0.0
 11
51.500000000026489
 21
-1.500000000221092
 31
0.0
  0
LINE
  5
1A1
  8
PATTERN_FILL
  6
CONTINUOUS
 62
     7
 10
41.500000000026489
 20
-11.500000000221
 30
0.0
 11
33.700000000026527
 21
-19.300000000220951
 31
0.0
  0
LINE
  5
1A2
  8
PATTERN_FILL
  6
CONTINUOUS
 62
     7
 10
70.759753593455557
 20
15.259753593207909
 30
0.0
 11
54.000000000026489
 21
-1.500000000221092
 31
0.0
  0
LINE
  5
1A3
  8
PATTERN_FILL
  6
CONTINUOUS
 62
     7
 10
44.000000000026489
 20
-11.500000000221
 30
0.0
 11
36.200000000026527
 21
-19.300000000220951
 31
0.0
  0
LINE
  5
1A4
  8
PATTERN_FILL
  6
CONTINUOUS
 62
     7
 10
71.283367556494554
 20
13.28336755624696
 30
0.0
 11
56.500000000026489
 21
-1.500000000221092
 31
0.0
  0
LINE
  5
1A5
  8
PATTERN_FILL
  6
CONTINUOUS
 62
     7
 10
46.500000000026489
 20
-11.500000000221
 30
0.0
 11
38.700000000026527
 21
-19.300000000220951
 31
0.0
  0
LINE
  5
1A6
  8
PATTERN_FILL
  6
CONTINUOUS
 62
     7
 10
71.806981519533551
 20
11.30698151928598
 30
0.0
 11
59.000000000026489
 21
-1.500000000221092
 31
0.0
  0
LINE
  5
1A7
  8
PATTERN_FILL
  6
CONTINUOUS
 62
     7
 10
49.000000000026489
 20
-11.500000000221
 30
0.0
 11
41.200000000026407
 21
-19.300000000220951
 31
0.0
  0
LINE
  5
1A8
  8
PATTERN_FILL
  6
CONTINUOUS
 62
     7
 10
72.330595482572676
 20
9.3305954823249948
 30
0.0
 11
61.500000000026382
 21
-1.500000000221092
 31
0.0
  0
LINE
  5
1A9
  8
PATTERN_FILL
  6
CONTINUOUS
 62
     7
 10
51.500000000026489
 20
-11.500000000221
 30
0.0
 11
43.700000000026527
 21
-19.300000000220951
 31
0.0
  0
LINE
  5
1AA
  8
PATTERN_FILL
  6
CONTINUOUS
 62
     7
 10
72.854209445611659
 20
7.3542094453640061
 30
0.0
 11
64.000000000026375
 21
-1.500000000221092
 31
0.0
  0
LINE
  5
1AB
  8
PATTERN_FILL
  6
CONTINUOUS
 62
     7
 10
54.000000000026489
 20
-11.500000000221
 30
0.0
 11
46.200000000026527
 21
-19.300000000220951
 31
0.0
  0
LINE
  5
1AC
  8
PATTERN_FILL
  6
CONTINUOUS
 62
     7
 10
73.37782340865067
 20
5.3778234084030307
 30
0.0
 11
66.500000000026475
 21
-1.500000000221092
 31
0.0
  0
LINE
  5
1AD
  8
PATTERN_FILL
  6
CONTINUOUS
 62
     7
 10
56.500000000026489
 20
-11.500000000221
 30
0.0
 11
48.700000000026542
 21
-19.300000000220951
 31
0.0
  0
LINE
  5
1AE
  8
PATTERN_FILL
  6
CONTINUOUS
 62
     7
 10
73.901437371689653
 20
3.4014373714420851
 30
0.0
 11
69.000000000026375
 21
-1.500000000221092
 31
0.0
  0
LINE
  5
1AF
  8
PATTERN_FILL
  6
CONTINUOUS
 62
     7
 10
59.000000000026489
 20
-11.500000000221
 30
0.0
 11
51.200000000026542
 21
-19.300000000220951
 31
0.0
  0
LINE
  5
1B0
  8
PATTERN_FILL
  6
CONTINUOUS
 62
     7
 10
74.425051334728551
 20
1.4250513344811251
 30
0.0
 11
71.500000000026375
 21
-1.500000000221092
 31
0.0
  0
LINE
  5
1B1
  8
PATTERN_FILL
  6
CONTINUOUS
 62
     7
 10
61.500000000026382
 20
-11.500000000221
 30
0.0
 11
53.700000000026542
 21
-19.300000000220951
 31
0.0
  0
LINE
  5
1B2
  8
PATTERN_FILL
  6
CONTINUOUS
 62
     7
 10
74.948665297767533
 20
-0.551334702479835
 30
0.0
 11
74.000000000026503
 21
-1.500000000221092
 31
0.0
  0
LINE
  5
1B3
  8
PATTERN_FILL
  6
CONTINUOUS
 62
     7
 10
64.000000000026375
 20
-11.500000000221
 30
0.0
 11
56.200000000026542
 21
-19.300000000220951
 31
0.0
  0
LINE
  5
1B4
  8
PATTERN_FILL
  6
CONTINUOUS
 62
     7
 10
66.500000000026475
 20
-11.500000000221
 30
0.0
 11
58.700000000026542
 21
-19.300000000220951
 31
0.0
  0
LINE
  5
1B5
  8
PATTERN_FILL
  6
CONTINUOUS
 62
     7
 10
69.000000000026375
 20
-11.500000000221
 30
0.0
 11
61.200000000026428
 21
-19.300000000220951
 31
0.0
  0
LINE
  5
1B6
  8
PATTERN_FILL
  6
CONTINUOUS
 62
     7
 10
71.500000000026375
 20
-11.500000000221
 30
0.0
 11
63.700000000026428
 21
-19.300000000220951
 31
0.0
  0
LINE
  5
1B7
  8
PATTERN_FILL
  6
CONTINUOUS
 62
     7
 10
73.452631578973737
 20
-12.04736842127366
 30
0.0
 11
66.200000000026293
 21
-19.300000000220951
 31
0.0
  0
LINE
  5
1B8
  8
PATTERN_FILL
  6
CONTINUOUS
 62
     7
 10
72.531578947394763
 20
-15.468421052852619
 30
0.0
 11
68.700000000026421
 21
-19.300000000220951
 31
0.0
  0
LINE
  5
1B9
  8
PATTERN_FILL
  6
CONTINUOUS
 62
     7
 10
71.610526315815832
 20
-18.889473684431529
 30
0.0
 11
71.200000000026421
 21
-19.300000000220951
 31
0.0
  0
LINE
  5
1BA
  8
SPEC
  6
CONTINUOUS
 62
     7
 10
-247.49999999999989
 20
367.06362999999999
 30
0.0
 11
195.0
 21
367.06362999999999
 31
0.0
  0
LINE
  5
1BB
  8
SPEC
  6
CONTINUOUS
 62
     7
 10
-247.49999999999989
 20
355.81362999999999
 30
0.0
 11
195.0
 21
355.81362999999999
 31
0.0
  0
LINE
  5
1BC
  8
SPEC
  6
CONTINUOUS
 62
     7
 10
-247.49999999999989
 20
299.56362999999999
 30
0.0
 11
195.0
 21
299.56362999999999
 31
0.0
  0
LINE
  5
1BD
  8
SPEC
  6
CONTINUOUS
 62
     7
 10
-247.49999999999989
 20
310.81362999999999
 30
0.0
 11
195.0
 21
310.81362999999999
 31
0.0
  0
LINE
  5
1BE
  8
SPEC
  6
CONTINUOUS
 62
     7
 10
-247.49999999999989
 20
333.31362999999999
 30
0.0
 11
195.0
 21
333.31362999999999
 31
0.0
  0
LINE
  5
1BF
  8
SPEC
  6
CONTINUOUS
 62
     7
 10
-247.49999999999989
 20
288.31362999999999
 30
0.0
 11
195.0
 21
288.31362999999999
 31
0.0
  0
LINE
  5
1C0
  8
SPEC
  6
CONTINUOUS
 62
     7
 10
-247.49999999999989
 20
265.81362999999999
 30
0.0
 11
195.0
 21
265.81362999999999
 31
0.0
  0
LINE
  5
1C1
  8
SPEC
  6
CONTINUOUS
 62
     7
 10
-247.49999999999989
 20
277.06362999999999
 30
0.0
 11
195.0
 21
277.06362999999999
 31
0.0
  0
LINE
  5
1C2
  8
SPEC
  6
CONTINUOUS
 62
     7
 10
-247.49999999999989
 20
243.31362999999999
 30
0.0
 11
195.0
 21
243.31362999999999
 31
0.0
  0
LINE
  5
1C3
  8
SPEC
  6
CONTINUOUS
 62
     7
 10
-247.49999999999989
 20
344.56362999999999
 30
0.0
 11
195.0
 21
344.56362999999999
 31
0.0
  0
LINE
  5
1C4
  8
SPEC
  6
CONTINUOUS
 62
     7
 10
-247.49999999999989
 20
367.06362999999999
 30
0.0
 11
-247.49999999999989
 21
220.81362999999999
 31
0.0
  0
TEXT
  5
1C5
  8
SPEC
 62
     7
 10
-243.74999999999989
 20
371.24344000000002
 30
0.0
 40
7.3297851562499989
  1
仕様
 41
0.7
 11
-243.74999999999989
 21
378.57322515624998
 31
0.0
 73
     3
  0
LINE
  5
1C6
  8
SPEC
  6
CONTINUOUS
 62
     7
 10
-150.0
 20
367.06362999999999
 30
0.0
 11
-150.0
 21
220.81362999999999
 31
0.0
  0
LINE
  5
1C7
  8
SPEC
  6
CONTINUOUS
 62
     7
 10
195.0
 20
367.06362999999999
 30
0.0
 11
195.0
 21
220.81362999999999
 31
0.0
  0
TEXT
  5
1C8
  8
SPEC
 62
     7
 10
-245.1026070700573
 20
235.4820357220508
 30
0.0
 40
5.7009440104166647
  1
寸法(\U+03C6\U+00D7全長)
 41
0.7
 11
-245.1026070700573
 21
241.18297973246749
 31
0.0
 73
     3
  0
TEXT
  5
1C9
  8
SPEC
 62
     7
 10
-245.01172142909999
 20
223.8830502421049
 30
0.0
 40
5.7009440104166647
  1
質量
 41
0.7
 11
-245.01172142909999
 21
229.58399425252159
 31
0.0
 73
     3
  0
TEXT
  5
1CA
  8
SPEC
 62
     7
 10
-148.0994393007191
 20
234.63534543173489
 30
0.0
 40
5.7009440104166647
  1
51\U+00D7237mm(除突起部)　※マイクヘッド含む
 41
0.7
 11
-148.0994393007191
 21
240.3362894421515
 31
0.0
 73
     3
  0
TEXT
  5
1CB
  8
SPEC
 62
     7
 10
-147.36211426589139
 20
223.85931176746769
 30
0.0
 40
5.7009440104166647
  1
HT470 D5：235g、HT470 C5：240g　※マイクヘッド含む,除電池
 41
0.7
 11
-147.36211426589139
 21
229.56025577788441
 31
0.0
 73
     3
  0
LINE
  5
1CC
  8
SPEC
  6
CONTINUOUS
 62
     7
 10
-247.49999999999989
 20
232.06362999999999
 30
0.0
 11
195.0
 21
232.06362999999999
 31
0.0
  0
TEXT
  5
1CD
  8
SPEC
 62
     7
 10
-245.1725137915449
 20
280.25793058976069
 30
0.0
 40
5.7009440104166647
  1
ゲイン調整
 41
0.7
 11
-245.1725137915449
 21
285.9588746001773
 31
0.0
 73
     3
  0
TEXT
  5
1CE
  8
SPEC
 62
     7
 10
-147.15862735819741
 20
279.88005425628131
 30
0.0
 40
5.7009440104166647
  1
0dB(GAIN「LOW」設定時)、15.5dB(GAIN「HIGH」設定時)
 41
0.7
 11
-147.15862735819741
 21
285.58099826669792
 31
0.0
 73
     3
  0
TEXT
  5
1CF
  8
SPEC
 62
     7
 10
-245.08160160749941
 20
268.67284430383728
 30
0.0
 40
5.7009440104166647
  1
電源
 41
0.7
 11
-245.08160160749941
 21
274.373788314254
 31
0.0
 73
     3
  0
TEXT
  5
1D0
  8
SPEC
 62
     7
 10
-147.37241999480949
 20
268.34637355861128
 30
0.0
 40
5.7009440104166647
  1
単3アルカリ乾電池\U+00D71または単3形ニッケル水素充電池\U+00D71または単3形リチウム乾電池\U+00D71
 41
0.7
 11
-147.37241999480949
 21
274.047317569028
 31
0.0
 73
     3
  0
TEXT
  5
1D1
  8
SPEC
 62
     7
 10
-244.94976034920501
 20
257.54413930417797
 30
0.0
 40
5.7009440104166647
  1
電池寿命
 41
0.7
 11
-244.94976034920501
 21
263.24508331459458
 31
0.0
 73
     3
  0
TEXT
  5
1D2
  8
SPEC
 62
     7
 10
-147.7704534061464
 20
257.5703495447292
 30
0.0
 40
5.7009440104166647
  1
アルカリ乾電池：約7時間、ニッケル水素充電池：約8時間、リチウム乾電池：約14時間
 41
0.7
 11
-147.7704534061464
 21
263.27129355514592
 31
0.0
 73
     3
  0
LINE
  5
1D3
  8
SPEC
  6
CONTINUOUS
 62
     7
 10
-247.49999999999989
 20
322.06362999999999
 30
0.0
 11
195.0
 21
322.06362999999999
 31
0.0
  0
LINE
  5
1D4
  8
SPEC
  6
CONTINUOUS
 62
     7
 10
-247.49999999999989
 20
220.81362999999999
 30
0.0
 11
195.0
 21
220.81362999999999
 31
0.0
  0
TEXT
  5
1D5
  8
SPEC
 62
     7
 10
-147.37159162819441
 20
358.5569050515515
 30
0.0
 40
5.7009440104166647
  1
F3E
 41
0.7
 11
-147.37159162819441
 21
364.25784906196822
 31
0.0
 73
     3
  0
TEXT
  5
1D6
  8
SPEC
 62
     7
 10
-245.0917836427989
 20
358.83107186849861
 30
0.0
 40
5.7009440104166647
  1
電波形式
 41
0.7
 11
-245.0917836427989
 21
364.53201587891527
 31
0.0
 73
     3
  0
TEXT
  5
1D7
  8
SPEC
 62
     7
 10
-147.29396400245321
 20
347.20058739709202
 30
0.0
 40
5.7009440104166647
  1
806.125～809.750MHz
 41
0.7
 11
-147.29396400245321
 21
352.90153140750868
 31
0.0
 73
     3
  0
TEXT
  5
1D8
  8
SPEC
 62
     7
 10
-244.859423684169
 20
347.61868859742049
 30
0.0
 40
5.7009440104166647
  1
搬送波周波数
 41
0.7
 11
-244.859423684169
 21
353.31963260783721
 31
0.0
 73
     3
  0
TEXT
  5
1D9
  8
SPEC
 62
     7
 10
-147.70209039096429
 20
325.44633916737718
 30
0.0
 40
5.7009440104166647
  1
10mW
 41
0.7
 11
-147.70209039096429
 21
331.14728317779389
 31
0.0
 73
     3
  0
TEXT
  5
1DA
  8
SPEC
 62
     7
 10
-244.94914221559361
 20
325.20910365780622
 30
0.0
 40
5.7009440104166647
  1
空中線電力
 41
0.7
 11
-244.94914221559361
 21
330.91004766822289
 31
0.0
 73
     3
  0
TEXT
  5
1DB
  8
SPEC
 62
     7
 10
-147.85510780282141
 20
291.73568969840278
 30
0.0
 40
5.7009440104166647
  1
内蔵式アンテナ　   
 41
0.7
 11
-147.85510780282141
 21
297.4366337088195
 31
0.0
 73
     3
  0
TEXT
  5
1DC
  8
SPEC
 62
     7
 10
-245.23728810435929
 20
291.59453733437817
 30
0.0
 40
5.7009440104166647
  1
アンテナ形式
 41
0.7
 11
-245.23728810435929
 21
297.29548134479489
 31
0.0
 73
     3
  0
TEXT
  5
1DD
  8
SPEC
 62
     7
 10
-147.2551861091809
 20
313.75775477864693
 30
0.0
 40
5.7009440104166647
  1
0.3%%%以下
 41
0.7
 11
-147.2551861091809
 21
319.45869878906359
 31
0.0
 73
     3
  0
TEXT
  5
1DE
  8
SPEC
 62
     7
 10
-244.80669995307639
 20
313.8822296115415
 30
0.0
 40
5.7009440104166647
  1
THD
 41
0.7
 11
-244.80669995307639
 21
319.58317362195822
 31
0.0
 73
     3
  0
TEXT
  5
1DF
  8
SPEC
 62
     7
 10
-244.9720051056955
 20
336.56635251389298
 30
0.0
 40
5.7009440104166647
  1
到達距離
 41
0.7
 11
-244.9720051056955
 21
342.26729652430959
 31
0.0
 73
     3
  0
TEXT
  5
1E0
  8
SPEC
 62
     7
 10
-147.42735418340581
 20
336.43880521313559
 30
0.0
 40
5.7009440104166647
  1
約70m　※見通しのよい屋外で使用した場合　※使用環境により異なる
 41
0.7
 11
-147.42735418340581
 21
342.13974922355231
 31
0.0
 73
     3
  0
TEXT
  5
1E1
  8
SPEC
 62
     7
 10
-147.7704534061464
 20
246.2349514782766
 30
0.0
 40
5.7009440104166647
  1
※使用環境により異なる
 41
0.7
 11
-147.7704534061464
 21
251.93589548869329
 31
0.0
 73
     3
  0
TEXT
  5
1E2
  8
SPEC
 62
     7
 10
-147.3146650474593
 20
302.21927827995518
 30
0.0
 40
5.7009440104166647
  1
35Hz～20kHz(\U+00B13dB)　※システム全体の帯域幅はマイクロホンにより変動　   
 41
0.7
 11
-147.3146650474593
 21
307.9202222903719
 31
0.0
 73
     3
  0
TEXT
  5
1E3
  8
SPEC
 62
     7
 10
-244.7959130682095
 20
302.11643808728422
 30
0.0
 40
5.7009440104166647
  1
周波数特性
 41
0.7
 11
-244.7959130682095
 21
307.81738209770077
 31
0.0
 73
     3
  0
TEXT
  5
1E4
  8
DIMNSIONS
 62
     7
 10
-59.999999999999979
 20
-346.12790000000001
 30
0.0
 40
7.3297851562499989
  1
(単位：mm)
 41
0.7
 11
-59.999999999999979
 21
-338.79811484374989
 31
0.0
 73
     3
  0
LINE
  5
1E5
  8
DIMNSIONS
  6
CONTINUOUS
 62
     7
 10
-163.0000000001281
 20
-206.00000000022101
 30
0.0
 11
-163.0000000001281
 21
-246.0
 31
0.0
  0
LINE
  5
1E6
  8
DIMNSIONS
  6
CONTINUOUS
 62
     7
 10
-137.0000000001281
 20
-206.00000000022101
 30
0.0
 11
-137.0000000001281
 21
-246.0
 31
0.0
  0
LINE
  5
1E7
  8
DIMNSIONS
  6
CONTINUOUS
 62
     7
 10
-163.0000000001281
 20
-240.0
 30
0.0
 11
-137.0000000001281
 21
-240.0
 31
0.0
  0
LINE
  5
1E8
  8
DIMNSIONS
  6
CONTINUOUS
 62
     7
 10
-163.0000000001281
 20
-240.0
 30
0.0
 11
-155.4981323243469
 21
-237.98988061454929
 31
0.0
  0
LINE
  5
1E9
  8
DIMNSIONS
  6
CONTINUOUS
 62
     7
 10
-163.0000000001281
 20
-240.0
 30
0.0
 11
-155.4981323243469
 21
-242.01011938545071
 31
0.0
  0
LINE
  5
1EA
  8
DIMNSIONS
  6
CONTINUOUS
 62
     7
 10
-137.0000000001281
 20
-240.0
 30
0.0
 11
-144.50186767590941
 21
-242.01011938545071
 31
0.0
  0
LINE
  5
1EB
  8
DIMNSIONS
  6
CONTINUOUS
 62
     7
 10
-137.0000000001281
 20
-240.0
 30
0.0
 11
-144.50186767590941
 21
-237.98988061454929
 31
0.0
  0
TEXT
  5
1EC
  8
DIMNSIONS
 62
     7
 10
-160.58333333333329
 20
-237.01833333333329
 30
0.0
 40
8.1442057291666661
  1
26.0
 41
0.7
 11
-160.58333333333329
 21
-228.8741276041666
 31
0.0
 73
     3
  0
LINE
  5
1ED
  8
DIMNSIONS
  6
CONTINUOUS
 62
     7
 10
-166.1193378276497
 20
-200.00000000022101
 30
0.0
 11
-206.0
 21
-200.00000000022101
 31
0.0
  0
LINE
  5
1EE
  8
DIMNSIONS
  6
CONTINUOUS
 62
     7
 10
-169.84565235202641
 20
36.99999999977868
 30
0.0
 11
-206.0
 21
36.99999999977868
 31
0.0
  0
LINE
  5
1EF
  8
DIMNSIONS
  6
CONTINUOUS
 62
     7
 10
-200.0
 20
-200.00000000022101
 30
0.0
 11
-200.0
 21
36.99999999977868
 31
0.0
  0
LINE
  5
1F0
  8
DIMNSIONS
  6
CONTINUOUS
 62
     7
 10
-200.0
 20
-200.00000000022101
 30
0.0
 11
-202.01011938545071
 21
-192.49813232443969
 31
0.0
  0
LINE
  5
1F1
  8
DIMNSIONS
  6
CONTINUOUS
 62
     7
 10
-200.0
 20
-200.00000000022101
 30
0.0
 11
-197.98988061454921
 21
-192.49813232443969
 31
0.0
  0
LINE
  5
1F2
  8
DIMNSIONS
  6
CONTINUOUS
 62
     7
 10
-200.0
 20
36.99999999977868
 30
0.0
 11
-197.98988061454921
 21
29.498132323997432
 31
0.0
  0
LINE
  5
1F3
  8
DIMNSIONS
  6
CONTINUOUS
 62
     7
 10
-200.0
 20
36.99999999977868
 30
0.0
 11
-202.01011938545071
 21
29.498132323997432
 31
0.0
  0
TEXT
  5
1F4
  8
DIMNSIONS
 62
     7
 10
-202.9816666666666
 20
-89.437500000221164
 30
0.0
 40
8.1442057291666661
  1
237
 50
90.0
 41
0.7
 11
-211.12587239583331
 21
-89.437500000221164
 31
0.0
 73
     3
  0
LINE
  5
1F5
  8
DIMNSIONS
  6
CONTINUOUS
 62
     7
 10
-135.855144996392
 20
108.7172825053991
 30
0.0
 11
-124.9999999999998
 21
125.0
 31
0.0
  0
LINE
  5
1F6
  8
DIMNSIONS
  6
CONTINUOUS
 62
     7
 10
-135.855144996392
 20
108.7172825053991
 30
0.0
 11
-133.3266183251784
 21
116.06065716843101
 31
0.0
  0
LINE
  5
1F7
  8
DIMNSIONS
  6
CONTINUOUS
 62
     7
 10
-135.855144996392
 20
108.7172825053991
 30
0.0
 11
-129.9936893334586
 21
113.81256817748491
 31
0.0
  0
LINE
  5
1F8
  8
DIMNSIONS
  6
CONTINUOUS
 62
     7
 10
-124.9999999999998
 20
125.0
 30
0.0
 11
-87.249999999999872
 21
125.0
 31
0.0
  0
TEXT
  5
1F9
  8
DIMNSIONS
 62
     7
 10
-118.9999999999998
 20
127.9816666666667
 30
0.0
 40
8.1442057291666661
  1
\U+03C651.0
 41
0.7
 11
-118.9999999999998
 21
136.1258723958334
 31
0.0
 73
     3
  0
TEXT
  5
1FA
  8
DATA
 62
     7
 10
-262.5
 20
-359.30753666666669
 30
0.0
 40
5.7009440104166673
  1
※仕様及び外観は予告なく変更されることがあります。
 41
0.7
 11
-262.5
 21
-353.60659265625009
 31
0.0
 73
     3
  0
TEXT
  5
1FB
  8
DATA
 62
     7
 10
-262.5
 20
-366.71586999999988
 30
0.0
 40
5.7009440104166673
  1
　また、同一商品でも若干の個体差があることがあります。ご了承ください。
 41
0.7
 11
-262.5
 21
-361.01492598958328
 31
0.0
 73
     3
  0
TEXT
  5
1FC
  8
DATA
 62
     7
 10
43.735671385140783
 20
-36.219585290287178
 30
0.0
 40
3.2576822916666659
  1
HT470
 41
0.7
 11
43.735671385140783
 21
-32.961902998620509
 31
0.0
 73
     3
  0
TEXT
  5
1FD
  8
DATA
 62
     7
 10
-153.79999999999981
 20
-56.153988279277669
 30
0.0
 40
5.7009440104166647
  1
iR
 41
0.7
 11
-153.79999999999981
 21
-50.453044268861007
 31
0.0
 73
     3
  0
LINE
  5
1FE
  8
DATA
  6
CONTINUOUS
 62
     7
 10
-158.63532162448891
 20
-60.000000000220943
 30
0.0
 11
-141.36467837576731
 21
-60.000000000220943
 31
0.0
  0
LINE
  5
1FF
  8
DATA
  6
CONTINUOUS
 62
     7
 10
-159.97724199999601
 20
-82.513000255744586
 30
0.0
 11
-140.0227580002603
 21
-82.513000255744586
 31
0.0
  0
LINE
  5
200
  8
DATA
  6
CONTINUOUS
 62
     7
 10
-152.69590621415961
 20
-62.057489440851697
 30
0.0
 11
-147.31999999999979
 21
-62.057489440851697
 31
0.0
  0
LINE
  5
201
  8
DATA
  6
CONTINUOUS
 62
     7
 10
-152.69590621415961
 20
-80.039807761398833
 30
0.0
 11
-147.30409378609659
 21
-80.039807761398833
 31
0.0
  0
CIRCLE
  5
202
  8
DATA
  6
CONTINUOUS
 62
     7
 10
-150.0000000001281
 20
-90.000000000220965
 30
0.0
 40
2.0
  0
CIRCLE
  5
203
  8
DATA
  6
CONTINUOUS
 62
     7
 10
-150.0000000001281
 20
-90.000000000220965
 30
0.0
 40
0.5
  0
POLYLINE
  5
204
  8
DATA
  6
CONTINUOUS
 62
     7
 66
     1
 10
0.0
 20
0.0
 30
0.0
 70
     1
  0
VERTEX
  5
392
  8
DATA
  6
CONTINUOUS
 62
     7
 10
41.000000000000107
 20
-37.651635265800209
 30
0.0
  0
VERTEX
  5
393
  8
DATA
  6
CONTINUOUS
 62
     7
 10
59.000000000000107
 20
-37.651635265800209
 30
0.0
  0
VERTEX
  5
394
  8
DATA
  6
CONTINUOUS
 62
     7
 10
59.000000000000107
 20
-73.651635265800195
 30
0.0
  0
VERTEX
  5
395
  8
DATA
  6
CONTINUOUS
 62
     7
 10
41.000000000000107
 20
-73.651635265800195
 30
0.0
  0
SEQEND
  5
396
  8
DATA
  6
CONTINUOUS
 62
     7
  0
LINE
  5
20B
  8
DATA
  6
CONTINUOUS
 62
     7
 10
-160.1193378276497
 20
-200.00000000022101
 30
0.0
 11
-139.88066217260649
 21
-200.00000000022101
 31
0.0
  0
LINE
  5
20C
  8
DATA
  6
CONTINUOUS
 62
     7
 10
-171.4300000001279
 20
-19.300000000220951
 30
0.0
 11
-170.00000000012801
 21
-27.100000000220909
 31
0.0
  0
LINE
  5
20D
  8
DATA
  6
CONTINUOUS
 62
     7
 10
-128.5700000001282
 20
-19.300000000220951
 30
0.0
 11
-130.0000000001281
 21
-27.100000000220909
 31
0.0
  0
LINE
  5
20E
  8
DATA
  6
CONTINUOUS
 62
     7
 10
-170.00000000012801
 20
-27.600000000220909
 30
0.0
 11
-130.0000000001281
 21
-27.600000000220909
 31
0.0
  0
LINE
  5
20F
  8
DATA
  6
CONTINUOUS
 62
     7
 10
-170.00000000012801
 20
-27.100000000220909
 30
0.0
 11
-170.00000000012801
 21
-27.600000000220909
 31
0.0
  0
LINE
  5
210
  8
DATA
  6
CONTINUOUS
 62
     7
 10
-170.00000000012801
 20
-27.600000000220909
 30
0.0
 11
-163.1168679455063
 21
-197.1217094597628
 31
0.0
  0
LINE
  5
211
  8
DATA
  6
CONTINUOUS
 62
     7
 10
-130.0000000001281
 20
-27.600000000220909
 30
0.0
 11
-136.88313205474981
 21
-197.1217094597628
 31
0.0
  0
LINE
  5
212
  8
DATA
  6
CONTINUOUS
 62
     7
 10
-170.0000000001281
 20
-27.100000000220909
 30
0.0
 11
-130.0000000001281
 21
-27.100000000220909
 31
0.0
  0
ARC
  5
213
  8
DATA
  6
CONTINUOUS
 62
     7
 10
-702.82770270283049
 20
-191.92398648670741
 30
0.0
 40
549.88701080640351
 50
359.15848507628129
 51
6.0466393287183546
  0
ARC
  5
214
  8
DATA
  6
CONTINUOUS
 62
     7
 10
402.82770270257311
 20
-191.92398648670741
 30
0.0
 40
549.88701080640237
 50
173.95336067128159
 51
180.84151492371879
  0
LINE
  5
215
  8
DATA
  6
CONTINUOUS
 62
     7
 10
-156.0000000001281
 20
-134.00000000022101
 30
0.0
 11
-144.0000000001281
 21
-134.00000000022101
 31
0.0
  0
LINE
  5
216
  8
DATA
  6
CONTINUOUS
 62
     7
 10
-156.00000000012841
 20
-134.00000000022101
 30
0.0
 11
-144.0000000001281
 21
-134.00000000022101
 31
0.0
  0
ARC
  5
217
  8
DATA
  6
CONTINUOUS
 62
     7
 10
111.79865771799309
 20
-87.416107382771287
 30
0.0
 40
271.82012458061592
 50
171.8410456250472
 51
189.86792786436709
  0
ARC
  5
218
  8
DATA
  6
CONTINUOUS
 62
     7
 10
-411.79865771825013
 20
-87.416107382771287
 30
0.0
 40
271.82012458061661
 50
350.13207213563288
 51
8.1589543749641944
  0
ARC
  5
219
  8
DATA
  6
CONTINUOUS
 62
     7
 10
-150.0000000001281
 20
-79.075721585057948
 30
0.0
 40
32.075721584837041
 50
79.09313286320581
 51
100.9068671368243
  0
ARC
  5
21A
  8
DATA
  6
CONTINUOUS
 62
     7
 10
-155.7853280888543
 20
-49.052318557882522
 30
0.0
 40
1.49999999999995
 50
100.9068671368213
 51
171.84104562504541
  0
ARC
  5
21B
  8
DATA
  6
CONTINUOUS
 62
     7
 10
-144.214671911409
 20
-49.052318557833793
 30
0.0
 40
1.499999999999964
 50
8.1589543749653171
 51
79.093132863205525
  0
LINE
  5
21C
  8
DATA
  6
CONTINUOUS
 62
     7
 10
-154.69590621415961
 20
-78.039807761398748
 30
0.0
 11
-154.69590621415961
 21
-64.057489440851711
 31
0.0
  0
ARC
  5
21D
  8
DATA
  6
CONTINUOUS
 62
     7
 10
-152.69590621415961
 20
-78.039807761398748
 30
0.0
 40
2.0
 50
180.0
 51
270.0
  0
ARC
  5
21E
  8
DATA
  6
CONTINUOUS
 62
     7
 10
-147.30409378609659
 20
-78.039807761398748
 30
0.0
 40
2.000000000000056
 50
270.0
 51
0.0
  0
LINE
  5
21F
  8
DATA
  6
CONTINUOUS
 62
     7
 10
-145.30409378609659
 20
-64.057489440851711
 30
0.0
 11
-145.30409378609659
 21
-78.039807761398748
 31
0.0
  0
ARC
  5
220
  8
DATA
  6
CONTINUOUS
 62
     7
 10
-147.30409378609659
 20
-64.057489440851711
 30
0.0
 40
2.0
 50
0.0
 51
90.0
  0
ARC
  5
221
  8
DATA
  6
CONTINUOUS
 62
     7
 10
-152.69590621415961
 20
-64.057489440851711
 30
0.0
 40
2.0
 50
90.0
 51
180.0
  0
POLYLINE
  5
222
  8
DATA
  6
CONTINUOUS
 62
     7
 66
     1
 10
0.0
 20
0.0
 30
0.0
 70
   129
  0
VERTEX
  5
397
  8
DATA
  6
CONTINUOUS
 62
     7
 10
-152.40000000012819
 20
-103.50000000022099
 30
0.0
 42
-0.4142135623730924
  0
VERTEX
  5
398
  8
DATA
  6
CONTINUOUS
 62
     7
 10
-150.90000000012819
 20
-102.00000000022099
 30
0.0
  0
VERTEX
  5
399
  8
DATA
  6
CONTINUOUS
 62
     7
 10
-149.10000000012801
 20
-102.00000000022099
 30
0.0
 42
-0.4142135623730951
  0
VERTEX
  5
39A
  8
DATA
  6
CONTINUOUS
 62
     7
 10
-147.60000000012801
 20
-103.50000000022099
 30
0.0
  0
VERTEX
  5
39B
  8
DATA
  6
CONTINUOUS
 62
     7
 10
-147.60000000012801
 20
-122.50000000022099
 30
0.0
 42
-0.4142135623730978
  0
VERTEX
  5
39C
  8
DATA
  6
CONTINUOUS
 62
     7
 10
-149.10000000012801
 20
-124.00000000022099
 30
0.0
  0
VERTEX
  5
39D
  8
DATA
  6
CONTINUOUS
 62
     7
 10
-150.90000000012819
 20
-124.00000000022099
 30
0.0
 42
-0.4142135623730951
  0
VERTEX
  5
39E
  8
DATA
  6
CONTINUOUS
 62
     7
 10
-152.40000000012819
 20
-122.50000000022099
 30
0.0
  0
SEQEND
  5
39F
  8
DATA
  6
CONTINUOUS
 62
     7
  0
POLYLINE
  5
22C
  8
DATA
  6
CONTINUOUS
 62
     7
 66
     1
 10
0.0
 20
0.0
 30
0.0
 70
   129
  0
VERTEX
  5
3A0
  8
DATA
  6
CONTINUOUS
 62
     7
 10
-152.2500000001281
 20
-107.63069137174961
 30
0.0
 42
-0.414213562373091
  0
VERTEX
  5
3A1
  8
DATA
  6
CONTINUOUS
 62
     7
 10
-151.2500000001281
 20
-106.63069137174961
 30
0.0
  0
VERTEX
  5
3A2
  8
DATA
  6
CONTINUOUS
 62
     7
 10
-148.7500000001281
 20
-106.63069137174961
 30
0.0
 42
-0.4142135623730951
  0
VERTEX
  5
3A3
  8
DATA
  6
CONTINUOUS
 62
     7
 10
-147.7500000001281
 20
-107.63069137174961
 30
0.0
  0
VERTEX
  5
3A4
  8
DATA
  6
CONTINUOUS
 62
     7
 10
-147.7500000001281
 20
-122.63069137174951
 30
0.0
 42
-0.4142135623730992
  0
VERTEX
  5
3A5
  8
DATA
  6
CONTINUOUS
 62
     7
 10
-148.7500000001281
 20
-123.63069137174951
 30
0.0
  0
VERTEX
  5
3A6
  8
DATA
  6
CONTINUOUS
 62
     7
 10
-151.2500000001281
 20
-123.63069137174951
 30
0.0
 42
-0.4142135623730951
  0
VERTEX
  5
3A7
  8
DATA
  6
CONTINUOUS
 62
     7
 10
-152.2500000001281
 20
-122.63069137174951
 30
0.0
  0
SEQEND
  5
3A8
  8
DATA
  6
CONTINUOUS
 62
     7
  0
TEXT
  5
236
  8
DATA
 62
     7
 10
-153.62554108246141
 20
-122.6765879791587
 30
0.0
 40
1.563687499999999
  1
OFF
 50
90.0
 41
0.7
 11
-155.1892285824614
 21
-122.6765879791587
 31
0.0
 73
     3
  0
TEXT
  5
237
  8
DATA
 62
     7
 10
-153.62554108246141
 20
-105.6656019065427
 30
0.0
 40
1.563687499999999
  1
ON
 50
90.0
 41
0.7
 11
-155.1892285824614
 21
-105.6656019065427
 31
0.0
 73
     3
  0
TEXT
  5
238
  8
DATA
 62
     7
 10
-153.62554108246141
 20
-116.4558818009036
 30
0.0
 40
1.563687499999999
  1
MUTE/PRG
 50
90.0
 41
0.7
 11
-155.1892285824614
 21
-116.4558818009036
 31
0.0
 73
     3
  0
POLYLINE
  5
239
  8
DATA
  6
CONTINUOUS
 62
     7
 66
     1
 10
0.0
 20
0.0
 30
0.0
 70
     1
  0
VERTEX
  5
3A9
  8
DATA
  6
CONTINUOUS
 62
     7
 10
-152.0000000001281
 20
-114.7456913717496
 30
0.0
  0
VERTEX
  5
3AA
  8
DATA
  6
CONTINUOUS
 62
     7
 10
-148.0000000001281
 20
-114.7456913717496
 30
0.0
  0
VERTEX
  5
3AB
  8
DATA
  6
CONTINUOUS
 62
     7
 10
-148.0000000001281
 20
-115.5156913717495
 30
0.0
  0
VERTEX
  5
3AC
  8
DATA
  6
CONTINUOUS
 62
     7
 10
-152.0000000001281
 20
-115.5156913717495
 30
0.0
  0
SEQEND
  5
3AD
  8
DATA
  6
CONTINUOUS
 62
     7
  0
POLYLINE
  5
240
  8
DATA
  6
CONTINUOUS
 62
     7
 66
     1
 10
0.0
 20
0.0
 30
0.0
 70
     1
  0
VERTEX
  5
3AE
  8
DATA
  6
CONTINUOUS
 62
     7
 10
-152.0000000001281
 20
-112.0456913717496
 30
0.0
  0
VERTEX
  5
3AF
  8
DATA
  6
CONTINUOUS
 62
     7
 10
-148.0000000001281
 20
-112.0456913717496
 30
0.0
  0
VERTEX
  5
3B0
  8
DATA
  6
CONTINUOUS
 62
     7
 10
-148.0000000001281
 20
-112.81569137174959
 30
0.0
  0
VERTEX
  5
3B1
  8
DATA
  6
CONTINUOUS
 62
     7
 10
-152.0000000001281
 20
-112.81569137174959
 30
0.0
  0
SEQEND
  5
3B2
  8
DATA
  6
CONTINUOUS
 62
     7
  0
POLYLINE
  5
247
  8
DATA
  6
CONTINUOUS
 62
     7
 66
     1
 10
0.0
 20
0.0
 30
0.0
 70
     1
  0
VERTEX
  5
3B3
  8
DATA
  6
CONTINUOUS
 62
     7
 10
-152.0000000001281
 20
-109.3456913717495
 30
0.0
  0
VERTEX
  5
3B4
  8
DATA
  6
CONTINUOUS
 62
     7
 10
-148.0000000001281
 20
-109.3456913717495
 30
0.0
  0
VERTEX
  5
3B5
  8
DATA
  6
CONTINUOUS
 62
     7
 10
-148.0000000001281
 20
-110.11569137174961
 30
0.0
  0
VERTEX
  5
3B6
  8
DATA
  6
CONTINUOUS
 62
     7
 10
-152.0000000001281
 20
-110.11569137174961
 30
0.0
  0
SEQEND
  5
3B7
  8
DATA
  6
CONTINUOUS
 62
     7
  0
POLYLINE
  5
24E
  8
DATA
  6
CONTINUOUS
 62
     7
 66
     1
 10
0.0
 20
0.0
 30
0.0
 70
     1
  0
VERTEX
  5
3B8
  8
DATA
  6
CONTINUOUS
 62
     7
 10
-152.0000000001281
 20
-117.4456913717496
 30
0.0
  0
VERTEX
  5
3B9
  8
DATA
  6
CONTINUOUS
 62
     7
 10
-148.0000000001281
 20
-117.4456913717496
 30
0.0
  0
VERTEX
  5
3BA
  8
DATA
  6
CONTINUOUS
 62
     7
 10
-148.0000000001281
 20
-118.2156913717495
 30
0.0
  0
VERTEX
  5
3BB
  8
DATA
  6
CONTINUOUS
 62
     7
 10
-152.0000000001281
 20
-118.2156913717495
 30
0.0
  0
SEQEND
  5
3BC
  8
DATA
  6
CONTINUOUS
 62
     7
  0
POLYLINE
  5
255
  8
DATA
  6
CONTINUOUS
 62
     7
 66
     1
 10
0.0
 20
0.0
 30
0.0
 70
     1
  0
VERTEX
  5
3BD
  8
DATA
  6
CONTINUOUS
 62
     7
 10
-152.0000000001281
 20
-120.14569137174951
 30
0.0
  0
VERTEX
  5
3BE
  8
DATA
  6
CONTINUOUS
 62
     7
 10
-148.0000000001281
 20
-120.14569137174951
 30
0.0
  0
VERTEX
  5
3BF
  8
DATA
  6
CONTINUOUS
 62
     7
 10
-148.0000000001281
 20
-120.9156913717495
 30
0.0
  0
VERTEX
  5
3C0
  8
DATA
  6
CONTINUOUS
 62
     7
 10
-152.0000000001281
 20
-120.9156913717495
 30
0.0
  0
SEQEND
  5
3C1
  8
DATA
  6
CONTINUOUS
 62
     7
  0
ARC
  5
25C
  8
DATA
  6
CONTINUOUS
 62
     7
 10
-160.1193378276497
 20
-197.00000000022101
 30
0.0
 40
2.9999999999999178
 50
182.3251175730355
 51
270.0
  0
ARC
  5
25D
  8
DATA
  6
CONTINUOUS
 62
     7
 10
-139.88066217260649
 20
-197.00000000022101
 30
0.0
 40
3.0
 50
270.0
 51
357.67488242696459
  0
CIRCLE
  5
25E
  8
DATA
  6
CONTINUOUS
 62
     7
 10
-150.0000000001281
 20
-289.99999999960141
 30
0.0
 40
25.5
  0
CIRCLE
  5
25F
  8
DATA
  6
CONTINUOUS
 62
     7
 10
-150.0000000001281
 20
-289.99999999960141
 30
0.0
 40
24.0
  0
ARC
  5
260
  8
DATA
  6
CONTINUOUS
 62
     7
 10
-161.71348353121161
 20
-289.99999999960141
 30
0.0
 40
1.2999999999998559
 50
151.5153646048706
 51
208.48463539513821
  0
ARC
  5
261
  8
DATA
  6
CONTINUOUS
 62
     7
 10
-149.61782365442531
 20
-276.79950555728942
 30
0.0
 40
19.738990344454599
 50
237.461117640635
 51
268.890598780804
  0
ARC
  5
262
  8
DATA
  6
CONTINUOUS
 62
     7
 10
-152.05549144756321
 20
-283.20887167842068
 30
0.0
 40
13.09878731158093
 50
214.45698502568681
 51
231.35905815259031
  0
ARC
  5
263
  8
DATA
  6
CONTINUOUS
 62
     7
 10
-161.71348353121161
 20
-289.99999999960141
 30
0.0
 40
1.2999999999999641
 50
151.5153646048617
 51
208.48463539513821
  0
ARC
  5
264
  8
DATA
  6
CONTINUOUS
 62
     7
 10
-149.61782365442531
 20
-303.20049444191329
 30
0.0
 40
19.738990344454681
 50
91.109401219196059
 51
122.53888235936481
  0
ARC
  5
265
  8
DATA
  6
CONTINUOUS
 62
     7
 10
-152.05549144756321
 20
-296.79112832078181
 30
0.0
 40
13.09878731158096
 50
128.64094184740969
 51
145.54301497431359
  0
ARC
  5
266
  8
DATA
  6
CONTINUOUS
 62
     7
 10
-138.28651646904461
 20
-289.99999999960141
 30
0.0
 40
1.2999999999999641
 50
331.51536460486182
 51
28.484635395138181
  0
ARC
  5
267
  8
DATA
  6
CONTINUOUS
 62
     7
 10
-150.38217634583091
 20
-276.79950555728942
 30
0.0
 40
19.738990344454681
 50
271.10940121919612
 51
302.538882359365
  0
ARC
  5
268
  8
DATA
  6
CONTINUOUS
 62
     7
 10
-147.94450855269301
 20
-283.20887167842068
 30
0.0
 40
13.098787311581029
 50
308.64094184741009
 51
325.54301497431368
  0
ARC
  5
269
  8
DATA
  6
CONTINUOUS
 62
     7
 10
-138.28651646904461
 20
-289.99999999960141
 30
0.0
 40
1.3000000000000549
 50
331.5153646048754
 51
28.484635395138241
  0
ARC
  5
26A
  8
DATA
  6
CONTINUOUS
 62
     7
 10
-150.38217634583091
 20
-303.20049444191329
 30
0.0
 40
19.738990344454692
 50
57.46111764063523
 51
88.890598780803927
  0
ARC
  5
26B
  8
DATA
  6
CONTINUOUS
 62
     7
 10
-147.94450855269301
 20
-296.79112832078181
 30
0.0
 40
13.09878731158105
 50
34.456985025685753
 51
51.35905815258986
  0
CIRCLE
  5
26C
  8
DATA
  6
CONTINUOUS
 62
     7
 10
-150.0000000001281
 20
-289.99999999960141
 30
0.0
 40
1.7999999999999541
  0
CIRCLE
  5
26D
  8
DATA
  6
CONTINUOUS
 62
     7
 10
-144.5000000001281
 20
-289.99999999960141
 30
0.0
 40
1.7999999999999541
  0
CIRCLE
  5
26E
  8
DATA
  6
CONTINUOUS
 62
     7
 10
-155.5000000001281
 20
-289.99999999960141
 30
0.0
 40
1.7999999999999541
  0
LINE
  5
26F
  8
DATA
  6
CONTINUOUS
 62
     7
 10
-157.60000000012801
 20
-294.85255517790949
 30
0.0
 11
-152.42332199639151
 21
-301.94609299063723
 31
0.0
  0
LINE
  5
270
  8
DATA
  6
CONTINUOUS
 62
     7
 10
-142.40000000012819
 20
-294.85255517790949
 30
0.0
 11
-147.57667800386449
 21
-301.94609299063723
 31
0.0
  0
ARC
  5
271
  8
DATA
  6
CONTINUOUS
 62
     7
 10
-150.0000000001281
 20
-300.17761610291012
 30
0.0
 40
2.9999999999998939
 50
216.1209882523444
 51
323.87901174765682
  0
LINE
  5
272
  8
DATA
  6
CONTINUOUS
 62
     7
 10
-152.24886176768939
 20
-272.09999999960138
 30
0.0
 11
-147.75113823256709
 21
-272.09999999960138
 31
0.0
  0
ARC
  5
273
  8
DATA
  6
CONTINUOUS
 62
     7
 10
-109.41999488335721
 20
-289.85084962535183
 30
0.0
 40
38.071451339576157
 50
158.95193958913089
 51
170.7839632254605
  0
ARC
  5
274
  8
DATA
  6
CONTINUOUS
 62
     7
 10
-190.5800051168988
 20
-289.85084962535183
 30
0.0
 40
38.071451339575923
 50
9.2160367745395142
 51
21.0480604108694
  0
ARC
  5
275
  8
DATA
  6
CONTINUOUS
 62
     7
 10
-152.24886176768939
 20
-275.09999999960132
 30
0.0
 40
2.9999999999998859
 50
90.0
 51
201.04806041087031
  0
ARC
  5
276
  8
DATA
  6
CONTINUOUS
 62
     7
 10
-147.75113823256709
 20
-275.09999999960138
 30
0.0
 40
3.00000000000002
 50
338.95193958913131
 51
90.000000000000028
  0
ARC
  5
277
  8
DATA
  6
CONTINUOUS
 62
     7
 10
-149.61782365442531
 20
-302.70049444191329
 30
0.0
 40
19.738990344454681
 50
91.109401219196059
 51
100.1077349714715
  0
ARC
  5
278
  8
DATA
  6
CONTINUOUS
 62
     7
 10
-150.38217634583091
 20
-302.70049444191329
 30
0.0
 40
19.738990344454692
 50
79.89226502852847
 51
88.890598780803927
  0
CIRCLE
  5
279
  8
DATA
  6
CONTINUOUS
 62
     7
 10
-150.0000000001281
 20
-289.99999999960141
 30
0.0
 40
21.349999999999898
  0
LINE
  5
27A
  8
DATA
  6
CONTINUOUS
 62
     7
 10
-39.880662172662468
 20
-200.00000000022101
 30
0.0
 11
-47.101044083710683
 21
-200.00000000022101
 31
0.0
  0
LINE
  5
27B
  8
DATA
  6
CONTINUOUS
 62
     7
 10
-28.570000000183999
 20
-19.300000000220951
 30
0.0
 11
-30.000000000184059
 21
-27.100000000220909
 31
0.0
  0
LINE
  5
27C
  8
DATA
  6
CONTINUOUS
 62
     7
 10
-71.430000000184009
 20
-19.300000000220951
 30
0.0
 11
-70.000000000183931
 21
-27.100000000220909
 31
0.0
  0
LINE
  5
27D
  8
DATA
  6
CONTINUOUS
 62
     7
 10
-30.000000000184059
 20
-27.600000000220909
 30
0.0
 11
-70.000000000183931
 21
-27.600000000220909
 31
0.0
  0
LINE
  5
27E
  8
DATA
  6
CONTINUOUS
 62
     7
 10
-30.000000000184059
 20
-27.100000000220909
 30
0.0
 11
-30.000000000184059
 21
-27.600000000220909
 31
0.0
  0
LINE
  5
27F
  8
DATA
  6
CONTINUOUS
 62
     7
 10
-30.000000000184059
 20
-27.600000000220909
 30
0.0
 11
-36.883132054805742
 21
-197.1217094597628
 31
0.0
  0
LINE
  5
280
  8
DATA
  6
CONTINUOUS
 62
     7
 10
-70.000000000183931
 20
-27.600000000220909
 30
0.0
 11
-66.3579014864805
 21
-117.29968339486
 31
0.0
  0
LINE
  5
281
  8
DATA
  6
CONTINUOUS
 62
     7
 10
-66.275964475347905
 20
-119.3176749261843
 30
0.0
 11
-64.685034802963969
 21
-158.50000000032551
 31
0.0
  0
LINE
  5
282
  8
DATA
  6
CONTINUOUS
 62
     7
 10
-30.000000000184059
 20
-27.100000000220909
 30
0.0
 11
-70.000000000183931
 21
-27.100000000220909
 31
0.0
  0
ARC
  5
283
  8
DATA
  6
CONTINUOUS
 62
     7
 10
-39.880662172662468
 20
-197.00000000022101
 30
0.0
 40
3.0
 50
270.0
 51
357.67488242696459
  0
LINE
  5
284
  8
DATA
  6
CONTINUOUS
 62
     7
 10
-50.10104408371069
 20
-187.00000000022101
 30
0.0
 11
-50.10104408371069
 21
-197.00000000022101
 31
0.0
  0
ARC
  5
285
  8
DATA
  6
CONTINUOUS
 62
     7
 10
-32.342939714039751
 20
-159.93138870307769
 30
0.0
 40
32.373754622532658
 50
177.46587081625501
 51
236.7335043187208
  0
ARC
  5
286
  8
DATA
  6
CONTINUOUS
 62
     7
 10
-47.101044083710683
 20
-197.00000000022101
 30
0.0
 40
3.0
 50
180.0
 51
270.0
  0
ARC
  5
287
  8
DATA
  6
CONTINUOUS
 62
     7
 10
-79.061927678946859
 20
-132.7047710717261
 30
0.0
 40
25.873848651198191
 50
7.3382238308873573
 51
61.344410001751747
  0
LINE
  5
288
  8
DATA
  6
CONTINUOUS
 62
     7
 10
-53.400000000184043
 20
-129.40000000022101
 30
0.0
 11
-53.400000000184043
 21
-184.89008482728761
 31
0.0
  0
POLYLINE
  5
289
  8
DATA
  6
CONTINUOUS
 62
     7
 66
     1
 10
0.0
 20
0.0
 30
0.0
  0
VERTEX
  5
3C2
  8
DATA
  6
CONTINUOUS
 62
     7
 10
-63.100000000183982
 20
-112.34125200445639
 30
0.0
  0
VERTEX
  5
3C3
  8
DATA
  6
CONTINUOUS
 62
     7
 10
-63.600000000183982
 20
-112.34125200445639
 30
0.0
  0
VERTEX
  5
3C4
  8
DATA
  6
CONTINUOUS
 62
     7
 10
-63.600000000183982
 20
-126.34125200445639
 30
0.0
  0
VERTEX
  5
3C5
  8
DATA
  6
CONTINUOUS
 62
     7
 10
-62.600000000183968
 20
-126.34125200445639
 30
0.0
  0
VERTEX
  5
3C6
  8
DATA
  6
CONTINUOUS
 62
     7
 10
-62.600000000183968
 20
-112.743283624036
 30
0.0
  0
SEQEND
  5
3C7
  8
DATA
  6
CONTINUOUS
 62
     7
  0
ARC
  5
291
  8
DATA
  6
CONTINUOUS
 62
     7
 10
-66.752749449309363
 20
-118.3263747247837
 30
0.0
 40
1.0999999999999091
 50
295.6861264132296
 51
68.96410873281944
  0
ARC
  5
292
  8
DATA
  6
CONTINUOUS
 62
     7
 10
-582.76090676050876
 20
-191.92398648670741
 30
0.0
 40
549.88701080640305
 50
4.8011487033920117
 51
6.0466393287183733
  0
ARC
  5
293
  8
DATA
  6
CONTINUOUS
 62
     7
 10
231.86545366031319
 20
-87.416107382771287
 30
0.0
 40
271.8201245806145
 50
171.84104562503569
 51
189.86792786436709
  0
ARC
  5
294
  8
DATA
  6
CONTINUOUS
 62
     7
 10
-35.718532146525718
 20
-49.052318557833793
 30
0.0
 40
1.499999999999988
 50
100.9068671367945
 51
171.84104562503461
  0
LINE
  5
295
  8
DATA
  6
CONTINUOUS
 62
     7
 10
-36.002351846709082
 20
-47.579414495178057
 30
0.0
 11
-30.819773249271169
 21
-47.789844020596021
 31
0.0
  0
LINE
  5
296
  8
DATA
  6
CONTINUOUS
 62
     7
 10
39.880662172504913
 20
-200.00000000022101
 30
0.0
 11
60.119337827548073
 21
-200.00000000022101
 31
0.0
  0
LINE
  5
297
  8
DATA
  6
CONTINUOUS
 62
     7
 10
28.570000000026418
 20
-19.300000000220951
 30
0.0
 11
30.000000000026489
 21
-27.100000000220909
 31
0.0
  0
LINE
  5
298
  8
DATA
  6
CONTINUOUS
 62
     7
 10
71.430000000026425
 20
-19.300000000220951
 30
0.0
 11
70.000000000026375
 21
-27.100000000220909
 31
0.0
  0
LINE
  5
299
  8
DATA
  6
CONTINUOUS
 62
     7
 10
30.000000000026489
 20
-27.600000000220909
 30
0.0
 11
70.000000000026375
 21
-27.600000000220909
 31
0.0
  0
LINE
  5
29A
  8
DATA
  6
CONTINUOUS
 62
     7
 10
30.000000000026489
 20
-27.100000000220909
 30
0.0
 11
30.000000000026489
 21
-27.600000000220909
 31
0.0
  0
LINE
  5
29B
  8
DATA
  6
CONTINUOUS
 62
     7
 10
30.000000000026489
 20
-27.600000000220909
 30
0.0
 11
36.883132054648293
 21
-197.1217094597628
 31
0.0
  0
LINE
  5
29C
  8
DATA
  6
CONTINUOUS
 62
     7
 10
70.000000000026375
 20
-27.600000000220909
 30
0.0
 11
63.116867945404692
 21
-197.1217094597628
 31
0.0
  0
LINE
  5
29D
  8
DATA
  6
CONTINUOUS
 62
     7
 10
30.000000000026489
 20
-27.100000000220909
 30
0.0
 11
70.000000000026375
 21
-27.100000000220909
 31
0.0
  0
ARC
  5
29E
  8
DATA
  6
CONTINUOUS
 62
     7
 10
39.880662172504913
 20
-197.00000000022101
 30
0.0
 40
2.9999999999999178
 50
182.3251175730355
 51
270.0
  0
ARC
  5
29F
  8
DATA
  6
CONTINUOUS
 62
     7
 10
60.119337827548073
 20
-197.00000000022101
 30
0.0
 40
3.0
 50
270.0
 51
357.67488242696447
  0
ARC
  5
2A0
  8
DATA
  6
CONTINUOUS
 62
     7
 10
42.299692904437499
 20
-112.9239837264963
 30
0.0
 40
5.9450211259416719
 50
94.821532621579024
 51
171.05876097394889
  0
ARC
  5
2A1
  8
DATA
  6
CONTINUOUS
 62
     7
 10
69.007016275614433
 20
-163.98096887368101
 30
0.0
 40
30.590539727920842
 50
187.92747296595289
 51
219.7859276704269
  0
LINE
  5
2A2
  8
DATA
  6
CONTINUOUS
 62
     7
 10
38.708816705362892
 20
-168.20000000022091
 30
0.0
 11
36.426914153158812
 21
-112.00000000022099
 31
0.0
  0
ARC
  5
2A3
  8
DATA
  6
CONTINUOUS
 62
     7
 10
57.700307095615472
 20
-112.9239837264963
 30
0.0
 40
5.9450211259416159
 50
8.9412390260511199
 51
85.178467378420947
  0
LINE
  5
2A4
  8
DATA
  6
CONTINUOUS
 62
     7
 10
61.291183294689972
 20
-168.20000000022091
 30
0.0
 11
63.573085846894159
 21
-112.00000000022099
 31
0.0
  0
LINE
  5
2A5
  8
DATA
  6
CONTINUOUS
 62
     7
 10
41.800000000026451
 20
-107.00000000022099
 30
0.0
 11
58.200000000026542
 21
-107.00000000022099
 31
0.0
  0
ARC
  5
2A6
  8
DATA
  6
CONTINUOUS
 62
     7
 10
49.949928963443433
 20
-179.25408336754509
 30
0.0
 40
6.2621011373546631
 50
270.45813530948999
 51
316.60248975396138
  0
ARC
  5
2A7
  8
DATA
  6
CONTINUOUS
 62
     7
 10
50.050071036609658
 20
-179.25408336754509
 30
0.0
 40
6.262101137354696
 50
223.3975102460378
 51
269.54186469050887
  0
ARC
  5
2A8
  8
DATA
  6
CONTINUOUS
 62
     7
 10
30.992983724438432
 20
-163.98096887368101
 30
0.0
 40
30.590539727920959
 50
320.2140723295733
 51
352.07252703404708
  0
LINE
  5
2A9
  8
DATA
  6
CONTINUOUS
 62
     7
 10
44.05000000002655
 20
-126.34125200445639
 30
0.0
 11
45.05000000002655
 21
-126.34125200445639
 31
0.0
  0
LINE
  5
2AA
  8
DATA
  6
CONTINUOUS
 62
     7
 10
54.950000000026428
 20
-126.34125200445639
 30
0.0
 11
55.950000000026542
 21
-126.34125200445639
 31
0.0
  0
LINE
  5
2AB
  8
DATA
  6
CONTINUOUS
 62
     7
 10
45.05000000002655
 20
-126.34125200445639
 30
0.0
 11
45.05000000002655
 21
-107.00000000022099
 31
0.0
  0
LINE
  5
2AC
  8
DATA
  6
CONTINUOUS
 62
     7
 10
54.950000000026428
 20
-107.00000000022099
 30
0.0
 11
54.950000000026428
 21
-126.34125200445639
 31
0.0
  0
LINE
  5
2AD
  8
DATA
  6
CONTINUOUS
 62
     7
 10
44.05000000002655
 20
-126.34125200445639
 30
0.0
 11
44.05000000002655
 21
-107.00000000022099
 31
0.0
  0
LINE
  5
2AE
  8
DATA
  6
CONTINUOUS
 62
     7
 10
55.950000000026542
 20
-126.34125200445639
 30
0.0
 11
55.950000000026542
 21
-107.00000000022099
 31
0.0
  0
CIRCLE
  5
2AF
  8
DATA
  6
CONTINUOUS
 62
     7
 10
50.000000000026503
 20
-116.800000000221
 30
0.0
 40
3.75
  0
CIRCLE
  5
2B0
  8
DATA
  6
CONTINUOUS
 62
     7
 10
-150.0437427717294
 20
-38.079857095554971
 30
0.0
 40
6.5
  0
CIRCLE
  5
2B1
  8
DATA
  6
CONTINUOUS
 62
     7
 10
-150.0000000001281
 20
-155.00000000022081
 30
0.0
 40
0.400000000000091
  0
CIRCLE
  5
2B2
  8
DATA
  6
CONTINUOUS
 62
     7
 10
-152.0000000001281
 20
-155.00000000022081
 30
0.0
 40
0.400000000000091
  0
CIRCLE
  5
2B3
  8
DATA
  6
CONTINUOUS
 62
     7
 10
-148.0000000001281
 20
-155.00000000022081
 30
0.0
 40
0.400000000000091
  0
TEXT
  5
2B4
  8
DATA
 62
     7
 10
-152.26785592327579
 20
-69.730801867266095
 30
0.0
 40
1.563687499999999
  1
CH
 50
90.0
 41
0.7
 11
-153.8315434232758
 21
-69.730801867266095
 31
0.0
 73
     3
  0
TEXT
  5
2B5
  8
DATA
 62
     7
 10
-152.26785592327579
 20
-74.946967775516555
 30
0.0
 40
1.563687499999999
  1
GRP
 50
90.0
 41
0.7
 11
-153.8315434232758
 21
-74.946967775516555
 31
0.0
 73
     3
  0
TEXT
  5
2B6
  8
DATA
 62
     7
 10
150.00000000000011
 20
-349.77473601165048
 30
0.0
 40
7.3297851562499989
  1
HT470 D5 / HT470 C5
 41
0.7
 11
150.00000000000011
 21
-342.44495085540052
 31
0.0
 73
     3
  0
TEXT
  5
2B7
  8
DATA
 62
     7
 10
150.00000000000011
 20
-327.7937
 30
0.0
 40
7.3297851562499989
  1
AKG
 41
0.7
 11
150.00000000000011
 21
-320.46391484374988
 31
0.0
 73
     3
  0
TEXT
  5
2B8
  8
DATA
 62
     7
 10
150.0
 20
-338.22456859999988
 30
0.0
 40
4.8865311328124994
  1
ハンドヘルド型送信機
 41
0.7
 11
150.0
 21
-333.33803746718741
 31
0.0
 73
     3
  0
CIRCLE
  5
2B9
  8
DATA
  6
CONTINUOUS
 62
     7
 10
-150.0000000001281
 20
87.499999999778552
 30
0.0
 40
25.5
  0
CIRCLE
  5
2BA
  8
DATA
  6
CONTINUOUS
 62
     7
 10
-150.0000000001281
 20
87.499999999778552
 30
0.0
 40
15.5
  0
CIRCLE
  5
2BB
  8
DATA
  6
CONTINUOUS
 62
     7
 10
-150.0000000001281
 20
87.499999999778552
 30
0.0
 40
24.0
  0
LINE
  5
2BC
  8
DATA
  6
CONTINUOUS
 62
     7
 10
-163.84565235202641
 20
36.99999999977868
 30
0.0
 11
-136.15434764822959
 21
36.99999999977868
 31
0.0
  0
LINE
  5
2BD
  8
DATA
  6
CONTINUOUS
 62
     7
 10
-165.29562795636011
 20
35.884149380667083
 30
0.0
 11
-175.20000000012789
 21
-1.500000000221092
 31
0.0
  0
LINE
  5
2BE
  8
DATA
  6
CONTINUOUS
 62
     7
 10
-134.704372043896
 20
35.884149380667083
 30
0.0
 11
-124.80000000012819
 21
-1.500000000221092
 31
0.0
  0
ARC
  5
2BF
  8
DATA
  6
CONTINUOUS
 62
     7
 10
-163.84565235202641
 20
35.49999999977868
 30
0.0
 40
1.5
 50
90.0
 51
165.16124937459611
  0
ARC
  5
2C0
  8
DATA
  6
CONTINUOUS
 62
     7
 10
-136.15434764822959
 20
35.49999999977868
 30
0.0
 40
1.499999999999887
 50
14.83875062540389
 51
90.0
  0
LINE
  5
2C1
  8
DATA
  6
CONTINUOUS
 62
     7
 10
-175.5000000001279
 20
-1.500000000221092
 30
0.0
 11
-124.5000000001281
 21
-1.500000000221092
 31
0.0
  0
LINE
  5
2C2
  8
DATA
  6
CONTINUOUS
 62
     7
 10
-175.5000000001279
 20
-3.000000000221092
 30
0.0
 11
-124.5000000001281
 21
-3.000000000221092
 31
0.0
  0
LINE
  5
2C3
  8
DATA
  6
CONTINUOUS
 62
     7
 10
-174.0000000001279
 20
-11.500000000221
 30
0.0
 11
-175.5000000001279
 21
-3.000000000221092
 31
0.0
  0
LINE
  5
2C4
  8
DATA
  6
CONTINUOUS
 62
     7
 10
-126.0000000001281
 20
-11.500000000221
 30
0.0
 11
-124.5000000001281
 21
-3.000000000221092
 31
0.0
  0
LINE
  5
2C5
  8
DATA
  6
CONTINUOUS
 62
     7
 10
-175.5000000001279
 20
-3.000000000221092
 30
0.0
 11
-175.5000000001279
 21
-1.500000000221092
 31
0.0
  0
LINE
  5
2C6
  8
DATA
  6
CONTINUOUS
 62
     7
 10
-124.5000000001281
 20
-3.000000000221092
 30
0.0
 11
-124.5000000001281
 21
-1.500000000221092
 31
0.0
  0
LINE
  5
2C7
  8
DATA
  6
CONTINUOUS
 62
     7
 10
-24.500000000184059
 20
-1.500000000221092
 30
0.0
 11
-75.500000000183931
 21
-1.500000000221092
 31
0.0
  0
LINE
  5
2C8
  8
DATA
  6
CONTINUOUS
 62
     7
 10
-26.000000000184059
 20
-11.500000000221
 30
0.0
 11
-74.000000000183931
 21
-11.500000000221
 31
0.0
  0
LINE
  5
2C9
  8
DATA
  6
CONTINUOUS
 62
     7
 10
-24.500000000184059
 20
-3.000000000221092
 30
0.0
 11
-75.500000000183931
 21
-3.000000000221092
 31
0.0
  0
LINE
  5
2CA
  8
DATA
  6
CONTINUOUS
 62
     7
 10
-26.000000000184059
 20
-11.500000000221
 30
0.0
 11
-24.500000000184059
 21
-3.000000000221092
 31
0.0
  0
LINE
  5
2CB
  8
DATA
  6
CONTINUOUS
 62
     7
 10
-74.000000000183931
 20
-11.500000000221
 30
0.0
 11
-75.500000000183931
 21
-3.000000000221092
 31
0.0
  0
LINE
  5
2CC
  8
DATA
  6
CONTINUOUS
 62
     7
 10
-24.500000000184059
 20
-3.000000000221092
 30
0.0
 11
-24.500000000184059
 21
-1.500000000221092
 31
0.0
  0
LINE
  5
2CD
  8
DATA
  6
CONTINUOUS
 62
     7
 10
-75.500000000183931
 20
-3.000000000221092
 30
0.0
 11
-75.500000000183931
 21
-1.500000000221092
 31
0.0
  0
LINE
  5
2CE
  8
DATA
  6
CONTINUOUS
 62
     7
 10
-28.500000000184059
 20
-19.300000000220951
 30
0.0
 11
-71.500000000183931
 21
-19.300000000220951
 31
0.0
  0
LINE
  5
2CF
  8
DATA
  6
CONTINUOUS
 62
     7
 10
-26.40000000018404
 20
-11.500000000221
 30
0.0
 11
-28.500000000184059
 21
-19.300000000220951
 31
0.0
  0
LINE
  5
2D0
  8
DATA
  6
CONTINUOUS
 62
     7
 10
-73.600000000183968
 20
-11.500000000221
 30
0.0
 11
-71.500000000183931
 21
-19.300000000220951
 31
0.0
  0
LINE
  5
2D1
  8
DATA
  6
CONTINUOUS
 62
     7
 10
-36.154347648285579
 20
36.99999999977868
 30
0.0
 11
-63.845652352082311
 21
36.99999999977868
 31
0.0
  0
LINE
  5
2D2
  8
DATA
  6
CONTINUOUS
 62
     7
 10
-34.704372043951821
 20
35.884149380667083
 30
0.0
 11
-24.80000000018401
 21
-1.500000000221092
 31
0.0
  0
LINE
  5
2D3
  8
DATA
  6
CONTINUOUS
 62
     7
 10
-65.29562795641607
 20
35.884149380667083
 30
0.0
 11
-75.200000000183977
 21
-1.500000000221092
 31
0.0
  0
ARC
  5
2D4
  8
DATA
  6
CONTINUOUS
 62
     7
 10
-36.154347648285579
 20
35.49999999977868
 30
0.0
 40
1.499999999999996
 50
14.838750625402779
 51
90.0
  0
ARC
  5
2D5
  8
DATA
  6
CONTINUOUS
 62
     7
 10
-63.845652352082418
 20
35.49999999977868
 30
0.0
 40
1.5
 50
89.999999999995637
 51
165.16124937459611
  0
LINE
  5
2D6
  8
DATA
  6
CONTINUOUS
 62
     7
 10
24.500000000026368
 20
-1.500000000221092
 30
0.0
 11
75.500000000026375
 21
-1.500000000221092
 31
0.0
  0
LINE
  5
2D7
  8
DATA
  6
CONTINUOUS
 62
     7
 10
26.000000000026489
 20
-11.500000000221
 30
0.0
 11
74.000000000026503
 21
-11.500000000221
 31
0.0
  0
LINE
  5
2D8
  8
DATA
  6
CONTINUOUS
 62
     7
 10
24.500000000026368
 20
-3.000000000221092
 30
0.0
 11
75.500000000026375
 21
-3.000000000221092
 31
0.0
  0
LINE
  5
2D9
  8
DATA
  6
CONTINUOUS
 62
     7
 10
26.000000000026489
 20
-11.500000000221
 30
0.0
 11
24.500000000026368
 21
-3.000000000221092
 31
0.0
  0
LINE
  5
2DA
  8
DATA
  6
CONTINUOUS
 62
     7
 10
74.000000000026503
 20
-11.500000000221
 30
0.0
 11
75.500000000026375
 21
-3.000000000221092
 31
0.0
  0
LINE
  5
2DB
  8
DATA
  6
CONTINUOUS
 62
     7
 10
24.500000000026368
 20
-3.000000000221092
 30
0.0
 11
24.500000000026368
 21
-1.500000000221092
 31
0.0
  0
LINE
  5
2DC
  8
DATA
  6
CONTINUOUS
 62
     7
 10
75.500000000026375
 20
-3.000000000221092
 30
0.0
 11
75.500000000026375
 21
-1.500000000221092
 31
0.0
  0
LINE
  5
2DD
  8
DATA
  6
CONTINUOUS
 62
     7
 10
28.500000000026489
 20
-19.300000000220951
 30
0.0
 11
71.500000000026375
 21
-19.300000000220951
 31
0.0
  0
LINE
  5
2DE
  8
DATA
  6
CONTINUOUS
 62
     7
 10
26.400000000026459
 20
-11.500000000221
 30
0.0
 11
28.500000000026489
 21
-19.300000000220951
 31
0.0
  0
LINE
  5
2DF
  8
DATA
  6
CONTINUOUS
 62
     7
 10
73.600000000026412
 20
-11.500000000221
 30
0.0
 11
71.500000000026375
 21
-19.300000000220951
 31
0.0
  0
LINE
  5
2E0
  8
DATA
  6
CONTINUOUS
 62
     7
 10
26.500000000026489
 20
-11.500000000221
 30
0.0
 11
26.421212121238572
 21
-11.57878787900893
 31
0.0
  0
LINE
  5
2E1
  8
DATA
  6
CONTINUOUS
 62
     7
 10
36.154347648128123
 20
36.99999999977868
 30
0.0
 11
63.845652351924862
 21
36.99999999977868
 31
0.0
  0
LINE
  5
2E2
  8
DATA
  6
CONTINUOUS
 62
     7
 10
34.704372043794358
 20
35.884149380667083
 30
0.0
 11
24.800000000026451
 21
-1.500000000221092
 31
0.0
  0
LINE
  5
2E3
  8
DATA
  6
CONTINUOUS
 62
     7
 10
65.295627956258613
 20
35.884149380667083
 30
0.0
 11
75.200000000026293
 21
-1.500000000221092
 31
0.0
  0
ARC
  5
2E4
  8
DATA
  6
CONTINUOUS
 62
     7
 10
36.154347648128123
 20
35.49999999977868
 30
0.0
 40
1.5
 50
90.0
 51
165.16124937459719
  0
ARC
  5
2E5
  8
DATA
  6
CONTINUOUS
 62
     7
 10
63.845652351924862
 20
35.49999999977868
 30
0.0
 40
1.499999999999996
 50
14.838750625402779
 51
90.0
  0
LINE
  5
2E6
  8
DATA
  6
CONTINUOUS
 62
     7
 10
-174.0000000001279
 20
-11.500000000221
 30
0.0
 11
-126.0000000001281
 21
-11.500000000221
 31
0.0
  0
LINE
  5
2E7
  8
DATA
  6
CONTINUOUS
 62
     7
 10
-171.50000000012801
 20
-19.300000000220951
 30
0.0
 11
-128.5000000001281
 21
-19.300000000220951
 31
0.0
  0
LINE
  5
2E8
  8
DATA
  6
CONTINUOUS
 62
     7
 10
-173.60000000012801
 20
-11.500000000221
 30
0.0
 11
-171.50000000012801
 21
-19.300000000220951
 31
0.0
  0
LINE
  5
2E9
  8
DATA
  6
CONTINUOUS
 62
     7
 10
-126.4000000001281
 20
-11.500000000221
 30
0.0
 11
-128.5000000001281
 21
-19.300000000220951
 31
0.0
  0
ENDSEC
  0
EOF
